Song name
# A B C D E F G H I J K L M N O P Q R S T U V W X Y Z

Ac Dc - Spellbound tab

------------------------------Spellbound------------------------------
Band: Ac Dc
Song: Spellbound
Album: For those about to rock (we salute you)
Great song.  Enjoy!

|---------------------------------------------|
|--------------------8---8----------------3---|
|--------2-----------9---7-----2----------2---|
|--------2-----------10--9-----2------3---0---|
|--------0------------------0--0------3-------|
|---3(5)------------------------------1-------|

Chorus
|----------------------||-------------------------------------------------|
|----------------------||-------------------------------------------------|
|--7-7--7-7-7-7---7-7-7||---------2--2---2------x--5--5--5---------2--2--2|
|--7-7--7-7-7-7---7-7-7||---------2--2---2--5---x--5--5--5--5--5---2--2--2|
|--5-5--5-5-5-5---5-5-5||---------0--0---0--2---x--3--3--3--2--2---0--0--0|
|----------------------||--2-3-2------------------------------------------|

|----------------|
|----------------|
|---2--2--2--2---|
|---2--2--2--2---|
|---0--0--0--0---|
|----------------|

|------------------------------------------|
|------------------------------------------|
|--5--5--5--5--5---------------------------|
|--5--5--5--5--5---5--5--5--5--5--2--------|
|--3--3--3--3--3---5--5--5--5--5--2--------|
|------------------3--3--3--3--3--0--------|
Tap to rate this tab
# A B C D E F G H I J K L M N O P Q R S T U V W X Y Z