Song name
# A B C D E F G H I J K L M N O P Q R S T U V W X Y Z

Ac Dc - Dirty Deeds Done Dirt Cheap tab

I know for sure that this song is really correct, cuz I recently saw AC/DC in concert and I took note on how Angus played some of his songs that I wasn't sure about.

symbols:   b = bend to fret   h = hammeron   p = pull off

Intro/Main riff, Play 4 times
e-------------------------
B--------------------3----
G------0------2------2--2-
D-2----0--2---2--2------2-
A-2-------2------2--------
E-------------------------

Verses, the timing is really weird so I'll add the lyrics so you know what to go by.  I can't emphasize how important it is to hit the notes on the second fret IMMEDIATELY after hammering on!
Play it at these parts!

*"If you're havin' trouble...."
*"You wanna graduate but n...."
*          "Pick up the phone..."
  e----------
  B----------
  G-0--0h2-2-
  D-0--0h2-2-
  A----------
  E----------

then play to lyrics like this, cuz it speeds up a little
"Just ring, 36   24, 36........crime."
e-------------------------------------
B-------------------------------------
G--0-0h2-2--0-0h2-2--0-0h2-2--0-0h2-2-
D--0-0h2-2--0-0h2-2--0-0h2-2--0-0h2-2-
A-------------------------------------
E-------------------------------------

Chorus 
"Dirty deeds, done dirt cheap."
e--------------------------
B--------------------------
G-2------------2---0-----2- C. Riff 1
D-2------------2---0-----2-
A--------------------------
E--------------------------

then
"Dirty deeds, done dirt cheap."
e--------------------------
B--------------------------
G--------------------------
D-2------------2---0-----2-
A-2------------2---0-----2-
E--------------------------

*Play C Riff 1 once more

the last line of the chorus has no guitar

theres of course a few more verses and then the guitar solo

Solo
e----------------------------------------------------------------------------
B------------------------------------------------------------10~~~-10b12--10-
G-6b8---6b8-------------------------9b11--9b11--9--7-----7-------------------
D-------------------9~~~---------7-------------------------------------------
A----------------------------------------------------------------------------
E----------------------------------------------------------------------------

for this part only, you have to pick very quickly for this part, so I suggest picking up and down
e-------------------------------------------------
B-------------------------------------------------
G-------------------------------------------------
D-9--9-X-X-X-9--9--9--X-X-9-X-X-9-X-X-9-X-X-7-7-9-
A-------------------------------------------------
E-------------------------------------------------

e-7h10p7-------------------------------------------
B-------10--10--------------------------------9b11-
G---------11--11p9h11p9-9p7---9p7-9p7---9-9-9------
D---------------------------9---------9------------
A--------------------------------------------------
E--------------------------------------------------

One handed part
e-8p7p5-8p7p5-8p7p5-8p7p5-9p8p6-9p8p6-9p8p6-9p8p6-10p9p7-10p9p7-10p9p7-10p9p7-
B-----------------------------------------------------------------------------
G-----------------------------------------------------------------------------
D-----------------------------------------------------------------------------
A-----------------------------------------------------------------------------
E-----------------------------------------------------------------------------

e-11p10p8-11p10p8-12p11p9-12p11p9-13p12p10-13p12p10-14p13p11-14p13p11-
B---------------------------------------------------------------------
G---------------------------------------------------------------------
D---------------------------------------------------------------------
A---------------------------------------------------------------------
E---------------------------------------------------------------------

e-15p14p12-15p14p12-16p15p13-16p15p13-17p16p14-17p16p14-18p17p15-18p17p15---17b19-
B---------------------------------------------------------------------------------
G---------------------------------------------------------------------------------
D---------------------------------------------------------------------------------
A---------------------------------------------------------------------------------
E---------------------------------------------------------------------------------

that's it, enjoi
Tap to rate this tab
# A B C D E F G H I J K L M N O P Q R S T U V W X Y Z