Song name
# A B C D E F G H I J K L M N O P Q R S T U V W X Y Z

Ac Dc - Dirty Deeds Done Dirt Cheap tab

-------------------------------------------------------------------------------
			     Dirty Deeds - AC DC                            
-------------------------------------------------------------------------------
Tabbed by:IheartEpiphone
Email:Woodpushin77@yahoo.com

Tuning:Standard

      Intro:

e|------------------------------------------|
B|--------------------3---------------------|
G|------------2-------2---------------------|  X 4
D|2---5---2---2---2-------------------------| 
A|2---5---2-------2-------------------------|
E|----3-------------------------------------|

      Verse  

    .....givin you the blues........what you gotta do...
e|--------------------------------------------------------------|
B|--------------------------------------------------------------|
G|7-s-9-----------------------7-s-9-----------------------7-s-9-|
D|7-s-9-----------------------7-s-9-----------------------7-s-9-|
A|5-s-7-----------------------5-s-9-----------------------5-s-7-|
E|--------------------------------------------------------------|

 Just ring......

e|---------------------------------|
B|---------------------------------|
G|7s9----7s9----7s9--7----99999----|
D|7s9----7s9----7s9--7----99999----|
A|5s7----5s7----5s7--5----77777----|
E|---------------------------------|

    Chorus:

e|----------------------------------------------|
B|----------------------------------------------|
G|2------------9---9-7-9----2------------9------|
D|2----7-5-7---9---9-7-9----2---7-5-7----9------|
A|-----7-5-7---7---7-5-7--------7-5-7----7------|
E|-----5-3-5--------------------5-3-5-----------|

    Verse:

        You got....broken heart...........tear drops start...
e|--------------------------------------------------------------|
B|--------------------------------------------------------------|
G|7-s-9-----------------------7-s-9-----------------------7-s-9-|
D|7-s-9-----------------------7-s-9-----------------------7-s-9-|
A|5-s-7-----------------------5-s-9-----------------------5-s-7-|
E|--------------------------------------------------------------|

 ..social call.............a ball

e|---------------------------------|
B|---------------------------------|
G|7s9----7s9----7s9--7----99999----|
D|7s9----7s9----7s9--7----99999----|
A|5s7----5s7----5s7--5----77777----|
E|---------------------------------|

    Chorus:

e|----------------------------------------------|
B|----------------------------------------------|
G|2------------9---9-7-9----2------------9------|
D|2----7-5-7---9---9-7-9----2---7-5-7----9------|
A|-----7-5-7---7---7-5-7--------7-5-7----7------|
E|-----5-3-5--------------------5-3-5-----------|

   Solo:

e|-----------------------------------------------------------------|
B|-------------------10b12---12-121212-12-12121212--1212-12-121212-|
G|77----9b10r9-9p7-7---------x--x-x-x--x--x-x-x-x---x-x--x--x-x-x--|
D|--9~~----------------------9--9-9-9--9--9-9-9-9---9-9--9--9-9-9--|
A|-----------------------------------------------------------------|
E|-----------------------------------------------------------------|

e|7-10p7-9p7--------------------------|
B|-----------10p7-9p7-----------------|
G|--------------------7-7------7b9----|
D|---------------------9-9b10-9-------|
A|---------------------------9--------|
E|------------------------------------|

e|0-7p47p47p47p47p47p47p47p47p4-5-8p58p58p58p58p58p5858p58p58--|
B|-------------------------------------------------------------|
G|-------------------------------------------------------------|
D|-------------------------------------------------------------|
A|-------------------------------------------------------------|
E|-------------------------------------------------------------|

e|6-9p69p69p69p69p69p69p69p69p6-7-10p7107p10p710p710p710p710p7-|
B|---------------------------------------------------|
G|----------------------------------------------------|
D|----------------------------------------------------|
A|----------------------------------------------------|
E|----------------------------------------------------|

e|8-11p811p811p811p811p811p8-9-12p912p912p912p912p9-----|
B|------------------------------------------------------|
G|------------------------------------------------------|
D|------------------------------------------------------|
A|------------------------------------------------------|
E|------------------------------------------------------|

e|10-13p1013p1013p1013p1013p1013p10----|
B|-------------------------------------|
G|-------------------------------------|
D|-------------------------------------|
A|-------------------------------------|
E|-------------------------------------|

e|11-14p1114p1114p1114p1114p1114p11--|
B|-----------------------------------|
G|-----------------------------------|
D|-----------------------------------|
A|-----------------------------------|
E|-----------------------------------|

e|12-15p1215p1215p1215p1215p1215p12--|
B|-----------------------------------|
G|-----------------------------------|
D|-----------------------------------|
A|-----------------------------------|
E|-----------------------------------|

e|13-16p1316p1316p1316p1316p1316p13--|
B|-----------------------------------|
G|-----------------------------------|
D|-----------------------------------|
A|-----------------------------------|
E|-----------------------------------|

e|14-17p1417p1417p1417p1417p1417p14-17--17b19-|
B|--------------------------------------------|
G|--------------------------------------------|
D|--------------------------------------------|
A|--------------------------------------------|
E|--------------------------------------------|

       Verse:
 ......the guts...drive you nuts..........made a stand....
e|--------------------------------------------------------------|
B|--------------------------------------------------------------|
G|7-s-9-----------------------7-s-9-----------------------7-s-9-|
D|7-s-9-----------------------7-s-9-----------------------7-s-9-|
A|5-s-7-----------------------5-s-9-----------------------5-s-7-|
E|--------------------------------------------------------------|

 for a fee.....back door man..
e|---------------------------------|
B|---------------------------------|
G|7s9----7s9----7s9--7----99999----|
D|7s9----7s9----7s9--7----99999----|
A|5s7----5s7----5s7--5----77777----|
E|---------------------------------|

       Chorus:

e|----------------------------------------------|
B|----------------------------------------------|
G|2------------9---9-7-9----2------------9------|
D|2----7-5-7---9---9-7-9----2---7-5-7----9------|
A|-----7-5-7---7---7-5-7--------7-5-7----7------|
E|-----5-3-5--------------------5-3-5-----------|


      Then the end:

e|----------------------|
B|----------------------|
G|---------2------------|
D|2--5--2--2--2---7-5-7-|    Till end, thats 6 or 7 times
A|2--5--2-----2---7-5-7-|
E|---3------------5-3-5-|

| s  slide
| h  hammer-on
| p  pull-off
| ~  vibrato
| b  Bend note
| x  Mute note
===============================================================================
Tap to rate this tab
# A B C D E F G H I J K L M N O P Q R S T U V W X Y Z