Song name
# A B C D E F G H I J K L M N O P Q R S T U V W X Y Z

Ac Dc - Theres Gonna Be Some Rockin tab

AC/DC-There's Gonna Be Rockin' Solo 
Dirty Deeds Done Dirt Cheap (1976) 
Transcribed by: playinbass1432
Email: playinbass1432@hotmail.com 

Standard Tuning 


            PH
E|------------------------|
B|------------------------|
G|------10--12---10-------|
D|-12-----------------12--|
A|------------------------|
E|------------------------|


E|-------10----------10----------|-10----------10---------10---------|
B|-------------------------------|-----------------------------------|
G|-12b14----12b14-------12b14----|----12b14-------12b14------12b14---|
D|-------------------------------|-----------------------------------|
A|-------------------------------|-----------------------------------|
E|-------------------------------|-----------------------------------|


E|-10--------10----------10-----------|-10-----------------------------|
B|--------------------------13b15~~~~-|----10-13-10----10--------------|
G|----12b14-----12b14-----------------|-------------12----12b14r12-----|
D|------------------------------------|----------------------------14--|
A|------------------------------------|--------------------------------|
E|------------------------------------|--------------------------------|


E|----------------------------|-----------------------------------------|
B|-8--------------------------|-----------------------------------------|
G|---10-10-10~~~----7-7-7~~~~-|--------------10b------------10----------|
D|----------------------------|-------12----------12-12~~~-----12-12~~~-|
A|----------------------------|------------14---------------------------|
E|----------------------------|-13h14-----------------------------------|


E|-----------------------------------------------|
B|-15-15-15-----------------15--15--15--12-15~~~-|
G|----------14~~~---14b16------------------------|
D|-----------------------------------------------|
A|-----------------------------------------------|
E|-----------------------------------------------|


E|---------------------------------------|
B|-18b20~~~----18-15-15-15---18-19~~~~~~-|
G|---------------------------------------|
D|---------------------------------------|
A|---------------------------------------|
E|---------------------------------------|

Tap to rate this tab
 
# A B C D E F G H I J K L M N O P Q R S T U V W X Y Z