Guitaretab - guitar tabs
Song name
# A B C D E F G H I J K L M N O P Q R S T U V W X Y Z

Accept - Stalingrad tab

Tabbed by milkaman

Tuning: Standard
Intro
e|-------------------------------------------------------|
H|-------------------------------------------------------|
G|-6--------9---8---6------------------------------------|
D|-------------------------6---------4---------6---9---6-|
A|-------------------------------------------------------|
E|-------------------------------------------------------|
 |
 |
 |
e|-------------------------------------------------------|
H|-------------------------------------------------------|
G|-------------------------------------------------------|
D|-6---------------------------------------------------6-|
A|-4---------------------------------4-----------------4-|
E|-----------------------------------2-------------------|


e|-------------------------------------------------------|
H|-------------------------------------------------------|
G|-6--------9---8---6------------------------------6---6-|
D|-------------------------6---------9---------9---------|
A|-------------------------------------------------------|
E|-------------------------------------------------------|
 |
 |
 |
e|-------------------------------------------------------|
H|-------------------------------------------------------|
G|-------------------------------------------------------|
D|-6---------------------------------4-----------------6-|
A|-4----------------4----------------2-----------------4-|
E|------------------2------------------------------------|


Verse

e|-------------------------------------------------------|
H|-------------------------------------------------------|
G|-----------------------------------------6---7---4-----|
D|-----------------------------------------6---7---4-----| 2x
A|-2-----------------------------------------------------|
E|-0---0-0-0-0-0-0-0-0-0-0-0-0-0-0-0-0-0-0---------------|
[ Tab from: http://www.guitaretab.com/a/accept/313638.html ]
e|-------------------------------------------------------|
H|-------------------------------------------------------|
G|-------------------------------------------------------|
D|-------------------------------------------------------|
A|-5-----------------------4------3------2---------------|
E|-3---3-3-3-3-3-3-3-3-3-3-2------1------0-0-0-0-0-0-0-0-|

e|-------------------------------------------------------|
H|-------------------------------------------------------|
G|-------------------------------------------------------|
D|-------------------------------------------------------|
A|-------------------------------------------------------|
E|-3-0-0-5-0-0-6-0-0-3-2-1-0-----------------------------|


Interlude

e|-------------------------------------------------------|
H|-5---5---5---5---5---5---5---5-------------------------|
G|---4---4---4---4---3---3---3---3-----------------------|
D|-------------------------------------------------------|
A|-------------------------------------------------------|
E|-------------------------------------------------------|
 |
 |
e|-------------------------------------------------------|
H|-------------------------------------------------------|
G|-------------------------------------------------------|
D|-------------------------------------------------------|
A|-2------5--------4-------3-----------------------------|
E|-0--0-0-3--------2-------1-----------------------------|

Chorus like Interlude


e|---------------------------------------------------------------|
H|---------------------------------------------------------------|
G|-------0------------0------------------------------------------|
D|-------0------------0------------------------------------------|
A|---------------------------------------------------------------|
E|-0-0-0--------0-0-0--------------------------------------------|
                        "Stalingrad"
Related for Stalingrad tab
Stalingrad chords by Accept