Song name
# A B C D E F G H I J K L M N O P Q R S T U V W X Y Z

Acid Drinkers - Slow & Stoned tab

#


From bartekbury@juno.com Fri Mar 21 11:30:16 1997
Date: Thu, 13 Mar 1997 13:53:31 PST
From: Bartek g Bury 
To: guitar@olga.net
Subject: "Slow And Stoned- Method Of Yonash"  by  "Acid Drinkers"

"Slow And Stoned - Method Of The Yonash" - Acid Drinkers
--------------------------------------------------------
Tabbed by: Bartek Bury (bartekbury@juno.com)
This is my first tab, so it might suck, but the tabs are pretty much
correct.

. = Palm Mute
^ = Bend


Drop D Tuning

Intro
E|------------------------------------------------||
B|------------------------------------------------||
G|------------------------------------------------||
D|------------------------------------------------||
A|-0-2^--0-2^--0-2^--0----------------------------||
D|-0-----0-----0-----0----------------------------||

Riff 1
E|------------------------------------------------||
B|------------------------------------------------||
G|------------------------------------------------||
D|-------------------2-3-2------------------------||
A|-0-2^--0-2^--0-2^-------------------------------||
D|-0-----0-----0----------------------------------||

Riff 2
E|------------------------------------------------||
B|------------------------------------------------||
G|-4^-2-3-4 5^----4^-2-3-4-6^---------------------||
D|------------------------------------------------||
A|------------------------------------------------||
D|------------------------------------------------||

Chorus
E|------------------------------------------------||
B|------------------------------------------------||
G|------------------------------------------------||
D|------------------------------------------------||
A|-0-0-2^--0-0-1^--0-0-0--0-0---------------------||
D|-0-0-----0-0-----0-0----0-0-6^------------------||
   . .     . .     . .    . .

Riff 3
E|------------------------------------------------||
B|------------------------------------------------||
G|------------------------------------------------||
D|------------------------------------------------||
A|--0-0---0000000---0000000---0000000-------------||
D|--0-0---0000000---0000000---0000000-------------||
    . .   .......   .......   .......
Tap to rate this tab
 
# A B C D E F G H I J K L M N O P Q R S T U V W X Y Z