Song name
# A B C D E F G H I J K L M N O P Q R S T U V W X Y Z

Acid Reign - Hangin On The Telephone tab

Band:  Acid Reign
Album: Hangin' On The Telephone EP
Song:  Hangin' On The Telephone

http://www.bnrmetal.com/groups/acre.htm

Copyright (c)  (Under One Flag) (1990)
Version 1.0 - (06/06/06)

Transcribed By: Steve
Email:          stephen.elvidge1@ntlworld.com


.  - palm mute           /  - slide up to
\  - slide down to       ~  - vibrato
h  - hammer on           b  - Bend
p  - pull off            Suffixes for bend
t  - tap                 f  - full bend    h - half bend
ph - pinched harmonic    q  - quarter bend t - tap bend
                         p  - pre bend
*  - see comment         ^  - Hold bend    r release bend
x  - Stuccatto           ~  - vibrato bend
,  - slight palm mute    () - ghost note, sustained note
"  - tremolo note        <> - harmonic

Tuning E A D G B E

 1st Verse

    [-----PM-----]  [-----PM-----]
|----------------------------------|
|----------------------------------|
|-8--------------------------------|
|-8-8-8-8-8-8-8-8-5----------------|
|-6-6-6-6-6-6-6-6-5-5-5-5-5-5-5-5/-|
|-----------------3-3-3-3-3-3-3-3/-| Rpt

    [----------PM------------]  
|-----------------------------|
|-----------------------------|
|-8---------------------------|
|-8-8-8-8-8-8-8-8-8-8-8-8-8-8-|
|-6-6-6-6-6-6-6-6-6-6-6-6-6-6-|
|-----------------------------|

 Chorus

    [-----PM-----]  [--------------------PM----------------------]
|-----------------------------------------------------------------|
|-----------------------------------------------------------------|
|-5---------------------------------------------------------------|
|-5-5-5-5-5-5-5-5-3-----------------------------------------------|
|-3-3-3-3-3-3-3-3-3-3-3-3-3-3-3-3-5-5-5-5-5-5-5-5-5-5-5-5-5-5-5-5-|
|-----------------1-1-1-1-1-1-1-1-3-3-3-3-3-3-3-3-3-3-3-3-3-3-3-3-| Rpt

 2nd Verse

    [----PM----]     [----PM----]
|----------------------------------|
|----------------------------------|
|-----------------8-------------8\-|
|-5-------------5/8-8-8-8-8-8-8-8\-|
|-5-5-5-5-5-5-5-5/6-6-6-6-6-6-6-6\-|
|-3-3-3-3-3-3-3-3------------------| Rpt

    [----PM----]    [------------PM--------------]
|-------------------------------------------------|
|-------------------------------------------------|
|-----------------8-------------------------------|
|-5-------------5/8-8-8-8-8-8-8-8-8-8-8-8-8-8-8-8-|
|-5-5-5-5-5-5-5-5/6-6-6-6-6-6-6-6-6-6-6-6-6-6-6-6-|
|-3-3-3-3-3-3-3-3---------------------------------|

 Bridge

 Guitar 1
    [-------------PM-------------]
[----------------------------------|
[----------------------------------|
[-5--------------------------------|
[-5-5-5-5-5-5-5-5------------------|
[-3-3-3-3-3-3-3-3-5-5-5-5-5-5-5-5--|
[-----------------3-3-3-3-3-3-3-3--|
[Guitar 2
[[--------------PM---------------]
[---------3-3----------------------|
[-----4-4----4-4----------3-3------|
[-5-5-----------------3-3-----3-3--|
[-----------------5-5--------------|
[----------------------------------|
[----------------------------------| Rpt

 Guitar 1
    [-------------PM-------------]
[----------------------------------|
[----------------------------------|
[-5--------------------------------|
[-5-5-5-5-5-5-5-5-5-5-5-5-5-5-5-5--|
[-3-3-3-3-3-3-3-3-3-3-3-3-3-3-3-3--|
[----------------------------------|
[Guitar 2
[[--------------PM---------------]
[---------3-3-------------3-3------|
[-----4-4----4-4------4-4-----4-4--|
[-5-5-------------5-5--------------|
[----------------------------------|
[----------------------------------|
[----------------------------------| 

 Rpt Chorus

    [-----PM-----]  [------------PM------------]
|---------------------------------------------------|
|---------------------------------------------------|
|-5-------------------------------------------------|
|-5-5-5-5-5-5-5-5-3-----------------------------5---|
|-3-3-3-3-3-3-3-3-3-3-3-3-3-3-3-3-5-5-5-5-5-5-5-5---|
|-----------------1-1-1-1-1-1-1-1-3-3-3-3-3-3-3-3---|

 Rpt 1st Verse
 Rpt Half Chorus


 Guitar solo

  G           D#

|---------------------|
|-8-10-10brp8-6-666---|
|---------------------|
|---------------------|
|---------------------|
|---------------------| Rpt 3 X

  D#    G   D# D  A#    F G

|-------------------------------------------|
|-6-666-------------------------------------|
|-------x---8--7--3-------0----trem dive----|
|-----------------------3-------------------|
|-------------------------------------------|
|-------------------------------------------|

 Rpt Verse
 Rpt Bridge
 
    [-----PM-----]  [------------PM------------]
|---------------------------------------------------|
|---------------------------------------------------|
|-5-------------------------------------------------|
|-5-5-5-5-5-5-5-5-3-----------------------------5---|
|-3-3-3-3-3-3-3-3-3-3-3-3-3-3-3-3-5-5-5-5-5-5-5-5---|
|-----------------1-1-1-1-1-1-1-1-3-3-3-3-3-3-3-3---|

    [----PM----]     [----PM----]
|----------------------------------|
|----------------------------------|
|-----------------8-------------8\-|
|-5-------------5/8-8-8-8-8-8-8-8\-|
|-5-5-5-5-5-5-5-5/6-6-6-6-6-6-6-6\-|
|-3-3-3-3-3-3-3-3------------------| Rpt 5 X

 Guitar 1
[---------------------------|
[---------------------------|
[-8--7----------------------|
[-8--7--8--7--5---(3)----\--|
[-6--5--8--7--5---(5)----\--|
[-------6--5--3---(3)----\--|
[Guitar 2
[---------------------------|
[---------------------------|
[---------------------------|
[---------------------------|
[-6--5----------------------|
[-------6--5--3---(3)-------|




END

Tap to rate this tab
# A B C D E F G H I J K L M N O P Q R S T U V W X Y Z