Song name
# A B C D E F G H I J K L M N O P Q R S T U V W X Y Z

Adair - Diamond Ring tab

-------------------------------------------------------------------------------
			     The Diamond Ring - Adair
-------------------------------------------------------------------------------
Tabbed by: Jarrett Case
Email: xdays_ive_diedx@yahoo.com

Tuning: Dropped D
        (D A D G B E)

Guitar 2
e|-------------------------------------------------------------------------|
B|----------7*---------------7*----------------7*----------------7*----7*--|
G|----6*--6*--6*--6*---6*--6*--6*--6*----6*--6*--6*--6*----6*--6*--6*------|
D|------6*------6*-------6*------6*--------6*------6*--------6*------6*----|
A|-------------------------------------------------------------------------|
E|-6-----------------8----------------6-----------------4------------------|

Guitar 1 - Start on (13) after every bass note of gtr. 2 (6, 8, 6, 4, etc)
e|----------------14*--------------------------------------|
B|-------14----14----14----14*-x4--------------------------|
G|----13----13*----------13--------------------------------|
D|------------------------------ play over guitar 2 -------|
A|---------------------------------------------------------|
E|---------------------------------------------------------|

Guitars 1 & 2 - Listen for rhythm
e|---------------------------------------------------------------------|
B|---------------------------------------------------------------------|
G|-6-6-6-6-6-6-6-6-----------------6-6-6-6-6-6-6-6---------------------|
D|-6-6-6-6-6-6-6-6-4-4-4-4-4-4-4-4-6-6-6-6-6-6-6-6-4-4-4-4-4-4-4-4-----|
A|-4-4-4-4-4-4-4-4-4-4-4-4-4-4-4-4-4-4-4-4-4-4-4-4-4-4-4-4-4-4-4-4-----|
E|-----------------4-4-4-4-4-4-4-4-----------------4-4-4-4-4-4-4-4-----|

Both - Listen for Rhythm
e|----------------------------------|
B|----------------------------------|
G|-3-3-3-3-3-3-3-3------------------|
D|-3-3-3-3-3-3-3-3-4-4-4-4-4-4-4-4--| x 4
A|-1-1-1-1-1-1-1-1-4-4-4-4-4-4-4-4--|
E|-----------------4-4-4-4-4-4-4-4--|

That's all I know for now. It's my first tab so if its kind of sketchy, forgive me. Hope 
all enjoy it. Great song by an amazing band. Catch em' live, you'll enjoy them.

Legend:

| *  harmonic
| x  Mute note
===============================================================================
Tap to rate this tab
# A B C D E F G H I J K L M N O P Q R S T U V W X Y Z