Song name
# A B C D E F G H I J K L M N O P Q R S T U V W X Y Z

Adam Gregory - Down The Road tab

DADGAd tuning (1st, 2nd, and 6th strings down a full step)

Fingerpicking: 1st=Ring, 2nd=middle, 3rd=index, 6th=thumb
        
	       4th and 5th=thumb (during chorus)


VERSE/INTRO/OUTRO

                            your
..tears              I  hear  words                 girl I..

d|-0----0-----------0----0----0---------0----0---------0--|
A|-0----0---0------------0----0---0----------0---0--------|
G|-7----11----11---------6----4-----4--------4-----4------|
D|--------------------------------------------------------|
A|--------------------------------------------------------|
D|-8----12-------12------7----5-------5------5-------5----|


      how
..feel  much this hurts.                 I know you..

d|-0----0----0----0---------0----0---------0--|
A|-0----0----0----0---0----------0---0--------|
G|-7----11---6----4-----4--------4-----4------|
D|--------------------------------------------|
A|--------------------------------------------|
D|-8----12---7----5-------5------5-------5----|

                            it
..can't                  see  now                   but I..

d|-0----0-----------0----0----0---------0----0---------0--|
A|-0----0---0------------0----0---0----------0---0--------|
G|-7----11----11---------6----4-----4--------4-----4------|
D|--------------------------------------------------------|
A|--------------------------------------------------------|
D|-8----12-------12------7----5-------5------5-------5----|


        you
..promise    some-how                   It's gonna be..

d|-0----0----0----0---------0----0---------0--|
A|-0----0----0----0---0----------0---0--------|
G|-7----11---6----4-----4--------4-----4------|
D|--------------------------------------------|
A|--------------------------------------------|
D|-8----12---7----5-------5------5-----5------|


CHORUS

                           gonna be
..beatiful               it's    easy                  it's gonna be..

d|-0---------0----0---------0----0---------0----0---------0--|
A|-0---0----------0---0----------0---0----------0---0--------|
G|-1-----1--------1-----1--------6-----6--------6-----6------|
D|-0--------------0--------------7--------------7------------|
A|-0--------------0--------------7--------------7------------|
D|-0-------0------0-------0------7-------7------7-------7----|

                             be healing
..magic               it's gonna                      if there's a..

d|-0---------0----0--------0----0---------0----0---------0--|
A|-0---0----------0---0----0----0---0----------0---0--------|
G|-7-----7--------7-----7--6----4-----4--------4-----4------|
D|-8--------------8--------7----5--------------5------------|
A|-8--------------8--------7----5--------------5------------|
D|-8-------8------8--------7----5-------5------5-------5----|

                                                           it's
..place     where you're meant to be                    but  somewhere..     

d|-0---------0----0---------0----0---------0----0--------0----0---------0-|
A|-0---0----------0---0----------0---0----------0---0----0----0---0-------|
G|-4-----4--------6-----6--------7-----7--------7-----7--6----4-----4-----|
D|----------------7--------------8--------------8--------7----5-----------|
A|----------------7--------------8--------------8--------7----5-----------|
D|-5-------5------7-------7------8-------8------8--------7----5-------5---|


..down the road from me

d|-0-|
A|-0-|
G|-4-|
D|-5-|
A|-5-|
D|-5-|


BRIDGE (after 2nd chorus)

Basically strum the chorus once through. Then,


It might be.....day

d|-0----...-----0
A|-0----...-----0
D|-4----...-----4
G|-5----...-----5
A|-5----...-----5
D|-5----...-----5

Tap to rate this tab
# A B C D E F G H I J K L M N O P Q R S T U V W X Y Z