Song name
# A B C D E F G H I J K L M N O P Q R S T U V W X Y Z

Adam Lambert - Strut tab

-----------------------------------------------------------------------------
			     SONG NAME - Band Name
-------------------------------------------------------------------------------
Tabbed by:
Email:

Tuning:

Part 1
e|---------------------------------|
B|---------------------------------|
G|---------------------------------|
D|---------------------------------|
A|---------------------------------|
D|-7--7--10--10--0--0--2--3--2--3--|

Chorus
e|-----------------------------|
B|-----------------------------|
G|-----------------------------|
D|-----------------------------|
A|-7--7--10--10--0-2--3--2--3--|
D|-7--7--10--10--0-2--3--2--3--|

Near end of chorus
e|10-10--10--10--10--10--10--10--10--|
B|9--9----9--9----9---9---9---9---9--|
G|-----------------------------------|
D|-----------------------------------|
A|-----------------------------------|
E|-----------------------------------|

e|-----------------------------------------|
B|4-5-4-5-4-5-4-5/-7----4-5-4-5-4-5-4-5-7--|
G|-----------------------------------------|
D|-----------------------------------------|
A|-----------------------------------------|
E|-----------------------------------------|


Keep repeating the first part until you get to the chorus.
Tap to rate this tab
# A B C D E F G H I J K L M N O P Q R S T U V W X Y Z