Song name
# A B C D E F G H I J K L M N O P Q R S T U V W X Y Z

Adanowsky - You Are The One tab

You are the one
Adanowsky
Amador

http://www.myspace.com/adanowsky

transcribed by Pablo Cruz Villalba

INTRO

Guitar 1

e |-3--3-3-3-3--3--1--1-1-1-1--1--0--0-0---------|
B |-3--3-3-3-3--3--1--1-1-1-1--1--1--1-1---------|
G |-3--3-3-3-3--3--2--2-2-2-2--2--0--0-0---------|  x4
D |-5--5-5-5-5--5--3--3-3-3-3--3--2--2-2---------|
A |-5--5-5-5-5--5--3--3-3-3-3--3--3--3-3---------|
E |-3--3-3-3-3--3--1--1-1-1-1--1---------0-1-2-3-|

Guitar 2 with slide (reverb)

e |---------------------------------------------------|
B |---------------------------------------------------|
G |-12/10--------10/7--------12/10--------9/10/9/7----|
D |---------------------------------------------------|
A |---------------------------------------------------|
E |---------------------------------------------------|

Verse 1

Gm          F                   C      Gm
   Even the gods get on their knees
Gm          F                   C      Gm
   None of them know how you came to be.

Chorus

Gm             F             C         Gm
   You are the one that I want to give
F              C             C         Gm
   You are the one that I want to give

    Gm F C Gm

Verse 2

Gm                 F              C     Gm
   The word doesn't know what to say
Gm                    F                  C        Gm
   And the rest of the world wants to change

Chorus

Gm             F             C         Gm
   You are the one that I want to give
F              C             C         Cm
   You are the one that I want to give

Cm x8

Intro
Chorus

Gm F C Gm
Tap to rate this tab
 
# A B C D E F G H I J K L M N O P Q R S T U V W X Y Z