Song name
# A B C D E F G H I J K L M N O P Q R S T U V W X Y Z

Adept - An Ode To Norah Barnes tab

I'm Almost a 100% sure that, this is how it goes.

Tabbed by:Growuppeterpan

I'm not sure about the rhythm, but you can just listen to the song while playing and 
you'll prabaly figure it out. Enjoy!


Drop D Tuning (DADGBe)

\ = Slide Down
~ = Let ring

Solo
e|-------------------------------------------------------------------|
G|-------------------------------------------------------------------|
B|--------------------12-------------10------------9-------------10--|
D|--------------------x--------------x-------------x-------------x---|
A|-------------0-0--0-10-0----0-0--0-8-0----0-0--0-7-0----0-0--0-8---|
D|--0-0--0-0---0-0--0----000000-0--0---000000-0--0---000000-0--0-----|

Repeat 4x


Ending
e|-----------------------------------------------------------------------|
G|-----------------------------------------------------------------------|
B|-----------------------------------------------------8-----------------|
D|------------------------------7---------------0------x---------------0-|
A|--0--0---0--0---0\-0--0---0-0-5-0-0---------0-0--0-0-6 0-0---------0-0-|
D|--0--0---0--0---0\-0--0---0-0---0-0-000-000-0-0--0-0---0-0-000-000-0-0-|


 -------------------------------------------------------------|
 ------------------------------9~-----------------------------|
 ------------------------------12~----------------------------|
 -----1---------------0---------------------------------------|
 -0-0-1-0-0---------0-0---------------------------------------|
 -0-0-1-0-0-000-000-0-0--0 000--------------------------------|
Tap to rate this tab
# A B C D E F G H I J K L M N O P Q R S T U V W X Y Z