Song name
# A B C D E F G H I J K L M N O P Q R S T U V W X Y Z

Adicts - Distortion tab

-------------------------------------------------------------------------------
        THE ADICTS   Distortion
-------------------------------------------------------------------------------
Tabbed by: Wet Mike
Tuning:E standard

Listen to the song to hear the correct rhythm

Intro +Harmonics+ Ė Lay your finger gently on the actual 7th fret.
e|--------7-----------7----------7-----------7-----------7-------------------|
B|-----7-----7-----7----7-----7-----7-----7-----7-----7-----7----------------|
G|--7-----------7----------7-----------7-----------7------------7------------|
D|---------------------------------------------------------------------------|
A|---------------------------------------------------------------------------|
E|---------------------------------------------------------------------------|
Main Riff
e|---------------------------------------------------------------------------|
B|---------------------------------------------------------------------------|
G|--6----6--6--6--6--6--6--6--6--6---9----9--9-------------------------------|
D|--6----6--6--6--6--6--6--6--6--6---9----9--9-------------------------------|
A|--4----4--4--4--4--4--4--4--4--4---7----7--7-------------------------------|
E|---------------------------------------------------------------------------|

Turn on the radio canít quite hear
e|---------------------------------------------------------------------------|
B|--9--9--9--9--9--9--9--9--9--9--9--9--9--9--9--9--9--9--9--9--9--9--9--9---|
G|---------------------------------------------------------------------------|
D|---------------------------------------------------------------------------|
A|---------------------------------------------------------------------------|
E|---------------------------------------------------------------------------|

Have to be careful what you say
e|---------------------------------------------------------------------------|
B|---------------------------------------------------------------------------|
G|---------------------------------------------------------------------------|
D|--6--6--6--6--6--6--6--6---6--6--6--6--6--6--6--6--------------------------|
A|--6--6--6--6--6--6--6--6---6--6--6--6--6--6--6--6--------------------------|
E|--4--4--4--4--4--4--4--4---4--4--4--4--4--4--4--4--------------------------|

Chorus DIS TOR TION 4xs
e|---------------------------------------------------------------------------|
B|--9--9--9--9--9--9--9--9--9--9--9--9--9--9--9--9--9--9--9--9--9--9--9--9---|
G|---------------------------------------------------------------------------|
D|---------------------------------------------------------------------------|
A|---------------------------------------------------------------------------|
E|---------------------------------------------------------------------------|

Turn on the radio
Can't quite hear
Outside Interference
Fills your ears
Have to be careful what you say
Might get distorted
in much the same way
Distortion (4x)
Read the stories of your deeds
It's not quite right
you're not too pleased
Just a small voice in a big crowd
Gets distorted when you shout loud
Tap to rate this tab
# A B C D E F G H I J K L M N O P Q R S T U V W X Y Z