Song name
# A B C D E F G H I J K L M N O P Q R S T U V W X Y Z

Adlers Appetite - Fading tab

-------------------------------------------------------------------------------
			                           ADLER'S APPETITE - FADING
-------------------------------------------------------------------------------

  Tune down 1/2 step: Eb Ab Db Gb Bb Eb
  This is my first tab so it's not 100% correct

  E E E Q  Q  E   E E E Q  Q  E   E E E Q  Q  E   E E E E +H
|-------3-------|-------3-------|-------3-------|----------------|
|---3------3----|---3------3----|---3------3----|-----1----------|
|-----0-------0-|-----0-------0-|-----0-------0-|---0------------|
|---------------|---------------|---------------|----------------|
|---------------|---------------|---------------|-3-----5-(5)----|
|-3-------------|-3-------------|-0-------------|----------------|

  The first part of the verse is the same as above but played twice.

  I couldn't figure the last bit out, but I'm pretty sure the chords are
  Am C D Am 

  This is the bit before the chorus
  Q  E E E E S S S S
|--------------------|
|------------3-3-3-3-|
|-0--0-0-0-0-2-2-2-2-|
|-2--2-2-2-2-0-0-0-0-|
|-3--3-3-3-3---------|
|--------------------|
Tap to rate this tab
 
# A B C D E F G H I J K L M N O P Q R S T U V W X Y Z