Adrian Stern - Amerika tab

Adrian Stern - Amerika
http://www.adrianstern.ch

I tabbed this song from the following live performance:
http://www.youtube.com/watch?v=Vif11LFog64
So it's not exactly the same as on the record, but sounds much better on a acoustic guitar!

Capo on 8

Chords used during strumming part:

		E A D G B E
		-----------
	Cadd9	- 3 2 0 3 0
	Am7	- 0 2 2 1 3
	Em	0 2 2 0 0 0
	D	- - 0 2 3 2
	Dsus4	- - 0 2 3 3
	G	2 0 0 2 3 3
	Em7	0 2 2 0 3 3
	Cadd9*	- 3 2 0 3 3

Tabbed by: swiz2000

_______________________________________________________________________________

Intro

e|------------------|------------------|------------------|-----0------------|
B|----3---1---0-----|----3---1---0-----|----3---1---0-----|----3--3----------|
G|---0--0---0---0---|---0--0---0---0---|---0--0---0---0---|---0-----0--------|
D|--0----0---0---0--|--0----0---0---0--|--0----0---0---0--|------------------|
A|------------------|------------------|------------------|-3--------3-------|
E|-3----------------|-2----------------|-0----------------|------------------|

Verse 1

2x
e|------------------|------------------|------------------|-----0------------|
B|----3---1---0-----|----3---1---0-----|----3---1---0-----|----3--3----------|
G|---0--0---0---0---|---0--0---0---0---|---0--0---0---0---|---0-----0-----0--|
D|--0----0---0---0--|--0----0---0---0--|--0----0---0---0--|------------0^2-2-|
A|------------------|------------------|------------------|-3---------3------|
E|-3----------------|-2----------------|-0----------------|------------------|

Du - Häsch mer letschti gseit
Es fehl dr öppis da - Heigsch s’gfühl du bliibisch schtoh
hesch hinderfrögt - und alles prüeft
nümm gwüsst macht's würkli sinn - das mir zwöi zäme sind


e|----0---2---3-----|----3---2---3-----|----0---2---3-----|----------3-------|
B|---3--3---3---3---|---3--3---3---3---|---3--3---3---3---|-----1------------|
G|--2----2---2---2--|--0----0---0---0--|--2----2---2---2--|----0--0----------|
D|-0----------------|------------------|-0----------------|-0^2-----2--------|
A|------------------|-3----------------|------------------|------------------|
E|------------------|------------------|------------------|------------------|

hesch gmerkt ich bi verschrocke und drum ganz liislig gsi
aber jetz isch’s mer klar was euse plan söll sii

Chorus

2x
e|------------------|------------------|------------------|-----0------------|
B|----3---1---0-----|----3---1---0-----|----3---1---0-----|----3--3----------|
G|---0--0---0---0---|---0--0---0---0---|---0--0---0---0---|---0-----0-----0--|
D|--0----0---0---0--|--0----0---0---0--|--0----0---0---0--|------------0^2-2-|
A|------------------|------------------|------------------|-3---------3------|
E|-3----------------|-2----------------|-0----------------|------------------|

chum mir haued ab
chum mir fönd neu aa
chum mir stiiged ines flugzüg und verschwinded uf amerika
chum mir boued es huus
und mached ganz vil chind
chum mir blibed zäme glücklich bis mir alt und schrumplig sind
chum das mache mir

e|------------------|---------2--------|
B|----3---1---0-----|----3-------------|
G|---0--0---0---0---|---2--2-----------|
D|--0----0---0---0--|--0-----0---------|
A|------------------|------------------|
E|-3----------------|-2----------------|

Verse 2

2x
e|------------------|------------------|------------------|-----0------------|
B|----3---1---0-----|----3---1---0-----|----3---1---0-----|----3--3----------|
G|---0--0---0---0---|---0--0---0---0---|---0--0---0---0---|---0-----0-----0--|
D|--0----0---0---0--|--0----0---0---0--|--0----0---0---0--|------------0^2-2-|
A|------------------|------------------|------------------|-3---------3------|
E|-3----------------|-2----------------|-0----------------|------------------|

Ich - käne mi fäng guet
ich träume farbig - Und dänke schwarz-wiss
mir zwöi det äne - miechti das sinn
wieso so wiit furtgoh? - es isch doch fridlich da


e|----0---2---3-----|----3---2---3-----|----0---2---3-----|----------3-------|
B|---3--3---3---3---|---3--3---3---3---|---3--3---3---3---|-----1------------|
G|--2----2---2---2--|--0----0---0---0--|--2----2---2---2--|----0--0----------|
D|-0----------------|------------------|-0----------------|-0^2-----2--------|
A|------------------|-3----------------|------------------|------------------|
E|------------------|------------------|------------------|------------------|

immer dänn wänn mi mis zwifle uf de bode holt
bisch es du wo plötzli chunnt und eusi zuekunft malt

Chorus

e|------------------|------------------|------------------|-----0------------|
B|----3---1---0-----|----3---1---0-----|----3---1---0-----|----3--3----------|
G|---0--0---0---0---|---0--0---0---0---|---0--0---0---0---|---0-----0-----0--|
D|--0----0---0---0--|--0----0---0---0--|--0----0---0---0--|------------0^2-2-|
A|------------------|------------------|------------------|-3---------3------|
E|-3----------------|-2----------------|-0----------------|------------------|

chum mir haued ab
chum mir fönd neu aa
chum mir stiiged ines flugzüg und verschwinded uf amerika

e|------------------|------------------|------------------|-STRUMMING Cadd9--|
B|----3---1---0-----|----3---1---0-----|----3---1---0-----|------------------|
G|---0--0---0---0---|---0--0---0---0---|---0--0---0---0---|------------------|
D|--0----0---0---0--|--0----0---0---0--|--0----0---0---0--|------------------|
A|------------------|------------------|------------------|------------------|
E|-3----------------|-2----------------|-0----------------|------------------|

chum mir boued es huus
und mached ganz vil chind
chum mir blibed zäme glücklich bis mir alt und schrumplig sind
chum das mache mir

Bridge (Strumming)

Am7     Em        D Dsus4 D
    mir flüged devo chum das mache mir


Am7        Em                   D Dsus4 D
    wirsch gseh es klappet scho chum das mache mir

Am7 Em                 D Dsus4 D
    nume grad mir zwöi chum das mache mir

Am7 Em          D
    alles nomal neu

e|------------------|------------------|------------------|-----0------------|
B|----3---1---0-----|----3---1---0-----|----3---1---0-----|----3--3----------|
G|---0--0---0---0---|---0--0---0---0---|---0--0---0---0---|---0-----0-----0--|
D|--0----0---0---0--|--0----0---0---0--|--0----0---0---0--|------------0^2-2-|
A|------------------|------------------|------------------|-3---------3------|
E|-3----------------|-2----------------|-0----------------|------------------|

chum mir haued ab - chum mir fönd neu aa
chum mir stiiged ines flugzüg und verschwinded uf amerika

e|------------------|------------------|------------------|-STRUMMING Cadd9--|
B|----3---1---0-----|----3---1---0-----|----3---1---0-----|------------------|
G|---0--0---0---0---|---0--0---0---0---|---0--0---0---0---|------------------|
D|--0----0---0---0--|--0----0---0---0--|--0----0---0---0--|------------------|
A|------------------|------------------|------------------|------------------|
E|-3----------------|-2----------------|-0----------------|------------------|

chum mir boued es huus - und mached ganz vil chind
chum mir blibed zäme glücklich bis mir alt und schrumplig sind

Strumming

               G  D                Em7 Cadd9*
chum mir haued ab   chum mir haued ab

                  G  D                       Em7                         Cadd9*
chum mir fönd neu aa   chum mir stiiged ines flugzüg und verschwinded uf amerika

         Am7         G            
chum mir kämpfed eus nomal de berg duruf

e|-----------------------|
B|---------------------3-|
G|-----0-------0---------|
D|---1---1---1---1-------|
A|-3-------3-------3-----|
E|-----------------------|

                           G
chum mir gänd alles, usser uuf

Tap to rate this tab
 
# A B C D E F G H I J K L M N O P Q R S T U V W X Y Z