Song name
# A B C D E F G H I J K L M N O P Q R S T U V W X Y Z

Aerosmith - All Along The Watchtower tab

-------55--------44---------12-33--33-|
----------12-33-------365-----45------|
1-------------------------------------|
--------------------------------------|
--------------------------------------|
--------------------------------------|
These are the most important things to know in this tab but it is a tough song

-----78-----------------------------------|
---3----------4-5556--------------36665---|
-----6----6-----------------------6-----6-|
------6--5--5-436--------77---------4-5---|
---------------------2----------3---------|
----------------------------------4-------|
Tap to rate this tab
# A B C D E F G H I J K L M N O P Q R S T U V W X Y Z