Guitaretab - guitar tabs
Song name
# A B C D E F G H I J K L M N O P Q R S T U V W X Y Z

Aerosmith - Uncle Salty tab

intro-
      A       D       A7      D
   E--0-------2-------0-------2----|
   B--2-------3-------1-------3----|
   G--2-------2-------0-------2----|
   D--2-------0-------2-------0----|
   A--0---------------0------------|
   E-------------------------------|

Repeat twice, then
 riff:      
   E------------------------------|
   B------------------------------|
   G------1--2------1--2----------|
   D---0---------0-----------7\---|
   A------------------------------|
   E------------------------------|

Try this for the verse:

rhythm guitar plays A chord 

lead plays the following

   E-------------------------------------------------------------|
   B---------4/5------------4/5-----------4/5------8/10----8/5---|
   G---------5/6------------5/6-----------5/6------9/11----9/6---|
   D-----7/-------------7/------------7/-------------------------|
   A--0--------------0--------------0----------0--------0--------|
   E-------------------------------------------------------------|
[ Tab from: http://www.guitaretab.com/a/aerosmith/271.html ]
               G   
   But when she cried  at night  
             A   
   no one came      (fill 1)

The chords are similar for the rest of the song changing only to F and then 
E when Steven says "went insane."

G = 320003
A = x02220
F = 133211
E = 022100



   fill 1-
   E---------------------------|
   B-----4/5------8/10----8/5--|
   G-----5/6------9/11----9/6--|
   D---------------------------|
   A--0-------0--------0-------|
   E---------------------------|

1st bridge riff:

   E---------0--3p2-------2-------3----------0--5\(1)-|
   B--------------------------------------------------|
   G--------------------------------------------------|
   D------2-------------------------------2-----------|
   A---0--------------0-------0--------0--------------|
   E--------------------------------------------------|


2nd bridge riff:

   E------3------1------0--------1------3----|
   B--------3------3------3--------3---------|
   G---0------0------0------0-0------0-------|
   D-----------------------------------------|
   A-----------------------------------------|
   E-----------------------------------------|
Related for Uncle Salty tab
Advertisement will be closed in 10 seconds