Song name
# A B C D E F G H I J K L M N O P Q R S T U V W X Y Z

Aerosmith - Same Old Song And Dance tab

                   These are the first two solos
                I'll hopefully have the third one by tomorrow
                          Please rate and comment
                                Thanx :p

E----------------------------------------------------------------|
B-10p8-8---------------------------------------------------------|
G-----9-9----------------------------------7---------------------|
D---------7br8-5~--7br8-5-7-5-7p5---7br8-9--5-7br8-7~-5-7p5------|
A--------------------------------7--------------------------7-7--|
E----------------------------------------------------------------|

E---------------------------------------------------------------------------|
B-8-5-88-5-12h15b17-15br17p12----------------15b17-15b17-15p12--------------|
G-7-4-77-4-------------------12-14----12---12-----------------14-12-12------|
D----------------------------------14-12-14---------------------------14----|
A----------------------------------------14---------------------------------|
E-----------------------------------------------------------------------12/-|

|------------------------------------------------------------------------------|
|---------------------------------------------12-15br17-12------15b17-15b17----|
|-------------12-12----------12h14p13----12-14-------------12h14---------------|
|----------12-12-12----12h14----------14---------------------------------------|
|----12h14-----------12--------------------------------------------------------|
|-00----------------0----------------------------------------------------------|

|----------------------------------15-17/19-19-19~---|
|-12h15-15b17-15b17-15b17-12-15-12-------------------|
|----------------------------------------------------|
|----------------------------------------------------|
|----------------------------------------------------|
|----------------------------------------------------|
Tap to rate this tab
# A B C D E F G H I J K L M N O P Q R S T U V W X Y Z