Song name
# A B C D E F G H I J K L M N O P Q R S T U V W X Y Z

Aerosmith - Same Old Song And Dance tab

                            "Same old song and dance"
                                   "Aerosmith"
                                     "1975"


Intro

E----------------------------------|
B----------------------------------|
G----------------------------------|  4x
D---------0-0---0-----------7--7\--|
A--2----2---0-2---2----2----5--5\--|
E--0--3b------------3b-0-----------|

Solo 1
                                                           W\Wah
E--5p3p0-----0----------------------------------------------------|
B--------0h3-----------------------------0-3b---------------------|
G--------------4p2p0--2b-0---0-2p0--0-2b------4p2p0--------12-12\-|
D--------------------------2-------2----------------2-2~~--12-12\-|
A-----------------------------------------------------------------|
E-----------------------------------------------------------------|

Verse
 (get yourself..)
E--0-------3-----0-|
B--0---3-3---3---0-|
G------2-2-----2---|
D------------------|
A------------------|
E------------------|

Chorus
  (Same old story..)
E--------------------------------------------------|
B--------------------------------------------------|
G--------------------------------------------------|
D--------------5--5--7--7----------0-0----0--------|
A--5--5--7--7--3--3--5--5---2----2---0--2---2----2-|
E--3--3--5--5---------------0-3b--------------3b-0-|

Bridge
   (Can't Rearrange it..)
E--------------------------------|
B--4-4--0-2--4-4--0-2--4-4--0-2--|
G--4-4--0-2--4-4--0-2--4-4--0-2--|
D--------------------------------|
A--------------------------------|
E--------------------------------|

solo 2

E--3--0--3-3--0------12----------------------3--0-------12----------
B--3--0--3-3--0--/12----12h15p12---------3---3--0--0/12----12h15p12-
G--------------------------------12--------0------------------------
D-----------------------------------14\-----------------------------
A-------------------------------------------------------------------
E-------------------------------------------------------------------

E-------------------------------------------------------------------
B-------------------------------------------------------------------
G--12-12~~---------------------12-12~~--------------11-14-13~~------
D--------14--14-----------12------------------11-14-----------------
A---------------------/14---14----------11-14-----------------------
E----------------12\0-----------------------------------------------

E------------12-----------------12----------------12-15-17-17b-17b~~|
B----------12---12-15---------12---15b-15br-15-15-------------------|
G----12-13------------12~~-14b--------------------------------------|
D-14----------------------------------------------------------------|
A-------------------------------------------------------------------|
E-------------------------------------------------------------------|

  That's just about it, I hope it helped.


                            "LEGEND"

                          b=bend
                          \=slide down the neck
                          p=pull-off
                          h=hammer-on
                          ~=vibrato
Tap to rate this tab
 
# A B C D E F G H I J K L M N O P Q R S T U V W X Y Z