Song name
# A B C D E F G H I J K L M N O P Q R S T U V W X Y Z

Aertze - Der Ritt Auf Dem Schmetterling tab

### This is the censored edition of the song, cause the original version is only up to 18 years in Germany, in this vesion the words in the brackets are the teenager-free words ;-)####


Der Ritt auf dem Schmetterling
   a                        G                        F
E :------------------------|------------3-----------|------------1-----------|
B :------------5-----------|--------3-------3-------|--------1--------1------|
G :----------------5-------|----4-------------------|----2----------------2--|
D :--------------------7---|------------------------|------------------------|
A :7-------------------7---|5-------------------5---|3-----------------------|
E :5-------------------5---|3-------------------3---|1-----------------------|

   F                                a
E :1-------------------------------|------------------------|
B :1---1-1-1-1-1h3p1-p0h1p0--------|------------5-----------|
G :2------------------------p0h2p0-|----------------5-------|
D :3-------------------------------|--------------------7---|
A :3-------------------------------|7-------------------7---|
E :1-------------------------------|5-------------------5---|
           
   G                        F 
E :------------------------|------------1-----------|
B :----3-3-3-3-3---1-0-----|--------1-------1-------|
G :--------------------2-0-|----2---------------2---|
D :------------------------|------------------------|
A :5-----------------------|3-----------------------|
E :3-----------------------|1-----------------------|


E :8-------------13-------------|
B :----10-------------13--------|
G :---------10-------------14---|
D :-----------------------------|
A :-----------------------------|
E :-----------------------------|

   a
E :----------------
B :----------------
G :----------------
D :7---------------
A :7---------------
E :5---------------
   Wir haben...

(1)
a           G         F            F     G  a
Wir haben zusammen im Sandkasten gesessen.
           G                  F               F     G  a
Beim Doktorspielen wollt' ich nur Dein Fieber messen.
              G                F             F   G  a
Jetzt bist Du vierzehn, und Du bist so weit.
           G     F
Wir warten keine Ewigkeit.

d                         a
Sind unsere Eltern auch dagegen...
d                       E -
Ich w?rd' Dich gerne mal (wegfegen).

(Intro)

(2)
Ich hoffe, da? Du keine Kinder kriegst.
Weil Du doch schlie?lich meine (Freundin) bist.
Die Eltern, die sind weggefahren.
Auf die Gelegenheit warte ich seit (20) Jahren.

Noch sitzen wir hier und spielen Schach.
Aber gleich (mach) ich Dich (wach)!

E :5---------------7---8---|7---------------5-------|
B :5-----------------------|8-------------------8---|
G :5-----------------------|7-----------------------|
D :------------------------|------------------------|
A :------------------------|------------------------|
E :------------------------|------------------------|

E :5-----------8-------8-------|8-------8-------8-------8-------|
B :6-------------10------10----|--10------10------10------10----|
G :5----------------10------10-|-----10------10------10------10-|
D :----------------------------|--------------------------------|
A :----------------------------|--------------------------------|
E :----------------------------|--------------------------------|

E :5---------------7---8---|7---------------8---10---|
B :5-----------------------|8------------------------|
G :5-----------------------|7------------------------|
D :------------------------|-------------------------|
A :------------------------|-------------------------|
E :------------------------|-------------------------|

E :-8-7---------------8----8---|-8---13---13---13---13---13---|
B :10---10-----------10---10---|10---13---13---13---13---13---|
G :10----------------10---10---|10----------------------------|
D :----------------------------|------------------------------|
A :----------------------------|------------------------------|
E :----------------------------|------------------------------|
Tap to rate this tab
# A B C D E F G H I J K L M N O P Q R S T U V W X Y Z