Song name
# A B C D E F G H I J K L M N O P Q R S T U V W X Y Z

Aertze - Wie Es Geht tab

Artist: Die ?rzte
Song: Wie es geht (Intro only)
Length: 3:38
Date: February 2001

Done by: Franz Winter, Germany
E-Mail: chacal@gmx.net
Comments: I'm pretty damn sure that it's right.
If you have any correction or questions, please send a mail! Thank you.


Intro:

|-----------------------------------------------------------------|
|-8-------8-8-----6-6-----6-6-----5-5-----5-5-----6-6-----6-6-----|
|-----5-5-----5-5-----5-5-----5-5-----5-5-----5-5-----5-5-----5-5-|
|-----------------------------------------------------------------| 2x
|-----------------------------------------------------------------|
|-----------------------------------------------------------------|

|-----------------------------------------------------------------|
|-8-8-----8-8-----6-6-----6-6-----5-5-----5-5-----6-6-----6-6-----|
|-----5-5-----5-5-----5-5-----5-5-----5-5-----5-5-----5-5-----5-5-|
|-----------------------------------------------------------------| 2x
|-----------------------------------------------------------------|
|-----------------------------------------------------------------|

|-----------------------------------------------------------------|
|-8-8-----8-8-----6-6-----6-6-----5-5-----5-5-----6-6-----6---5---|
|-----5-5-----5-5-----5-5-----5-5-----5-5-----5-5-----5-5---5-----|
|-----------------------------------------------------------------| 1x
|-----------------------------------------------------------------|
|-----------------------------------------------------------------|
Tap to rate this tab
# A B C D E F G H I J K L M N O P Q R S T U V W X Y Z