Song name
# A B C D E F G H I J K L M N O P Q R S T U V W X Y Z

Aertze - Kopf?ber In Die H?lle tab

--------------------------------------------------------------------------------
Yeah, here is an tab from Germanys "die ?rzte".
It?s my second tab, so don't worry about my mistakes (if there are any).
So, hav e fun with my tab! 
yours Leerebirne@web.de (Benjamin Marschner)
--------------------------------------------------------------------------------
Kopf?ber in die H?lle  "die ?rzte"
--------------------------------------------------------------------------------
Intro played with acoustic nylon strings:

Gtr.1:

    Am                Am9      Fmaj7           G5
1:--0-----0--0--0--0--0-------0--0--0--0----------3--------
2:--1-----1--1--1--1--0-------1--1--1--1----------0--------
3:--2--2--2--2--2--2--2-------2--2--2--2----------0--------
4:--2--2--2--2--2--2--2-------3--3--3--3-------0-----0--0--
5:--0-----0--0-----0--0-------3--3--3--3-------2-----2--2--
6:--------0--------0--0-------1--1--1--1-------3-----3--3--

Intro-Solo:
Gtr.2:

1:----------------------------------------------------
2:----------------------------------------------------
3:----------------------------------------------------
4:---3-3-3-3-2-0---0-2---------3-3-3-3-2-0---0-2------
5:---------------3-------------------------3-----0----
6:----------------------------------------------------


1:----------------------------------------------------
2:----------------------------------------------------
3:----------------------------------------------------
4:---3-3-3-3-2-0---0-2---------3-3-3-3-2-0---0-2------
5:---------------3-------------------------3-----0----
6:----------------------------------------------------

1:---------------------------------------------------------------------
2:---------------------------------------------------------------------
3:---------------------------------------------------------------------
4:---3-3-3-3-2-0---0-2---------3-3-3-3-2-0---0-2-----------------------
5:---------------3-------------------------3------3-5-2-3-0-2----------
6:------------------------------------------------------------3-5-1-0--

Interlude w/disortion:

1:--------------------------
2:--------------------------
3:--------------------------
4:--7--7---x---7-7-----2-5--
5:--7--7---x---7-7-----2-5--
6:--5--5---x---5-5-----0-3--

Verse1 w/electric gtr + w/disortion:

Fill*1 /w/acoustic nylon strings:
                  H
1:------------------
2:------------------
3:--7-5-4-5-4-------
4:------------7-5-7-
5:------------------
6:------------------

Am    G     C                F
Revolution stand auf unsern Fahnen
Am    G     F                  *1
Revolution stand uns im Gesicht
Am         G        C               F 
Wir ham' erlebt was and're nicht mal ahnen
Am    G             D    
Revolution weniger wollten wir nicht
             F                              
Das ist noch nicht so lange her, doch heute 
E
kennst Du mich nicht mehr

Chorus w/distortion:

                    Am   Em
Wir haben getr?umt
         F         G 
Von einer besseren Welt
                    Am   Em
Wir haben sie uns
           F     G  
So einfach vorgestellt
            C        G
Wir haben getr?umt
          Am     Em
Es war 'ne lange Nacht
    F                  G            Am
Ich w?nschte wir waer'n niemals aufgewacht

Intro-Solo
Interlude
Verse2:

Am    G                 C           F
Revolution, wir wollten weg von der Masse
Am    G                   F      *1
Kopf?ber in die H?lle und zurueck
Am           G      C             F 
Heute stehst Du bei Hertie an der Kasse
Am                     G              D    
Da ist keine Sehnsucht mehr in Deinem Blick
              F                              
Du sagst: man tut halt was man kann 
               E
und Dir geht's gut, Du kotzt mich an!


                    Am   Em
Wir haben getr?umt
         F         G 
Von einer besseren Welt
                    Am   Em
Wir haben sie uns
           F     G  
So einfach vorgestellt
            C        G
Wir haben getr?umt
          Am     Em
Es war 'ne lange Nacht
    F                  G            Am
Ich w?nschte wir waer'n niemals aufgewacht

Solo:
      -3-                             p       P      P     
1:---0-1-0--0--------------------8-8-8--7-7-7--5-5-5--3-3-3-----
2:----------------------------------------------------------3---
3:--------------------------------------------------------------
4:--------------------------------------------------------------
5:--------------------------------------------------------------
6:--------------------------------------------------------------

      -3-              H      H           -3-
1:---0-1-0--0---------------------------------------------------
2:--------------------------------------------------------------
3:----------------2-2-2-4--2-0-2--------------------------------
4:--------------------------------------------------------------
5:--------------------------------0-2-3---2-3-2--0---------------
6:--------------------------------------------------------------

Fill*2 w/distortion:
       H
1:-------------
2:-7-7-8-7-5-7-
3:-------------
4:-------------
5:-------------
6:-------------


           Am   Em
Revolution
         F         G 
Von einer besseren Welt
                Am   Em
Wir ha'm sie uns
           F     G  
So einfach vorgestellt
            C        G
Wir haben getr?umt
          Am     Em
Es war 'ne lange Nacht
    F                  G            D    *2
Ich w?nschte wir w?r'n niemals aufgewacht
    F                  G            Am
Ich w?nschte wir w?r'n niemals aufgewacht

Outro-Solo w/acoustic nylon strings:
-------------incomplete!!!!!!!-----------

1:-0-1-3-1--0---------------------------------------------------
2:------------3-1-0-1-0-----------------------------------------
3:----------------------2-0-2-----------------------------------
4:--------------------------------------------------------------
5:--------------------------------------------------------------
6:--------------------------------------------------------------
Tap to rate this tab
 
# A B C D E F G H I J K L M N O P Q R S T U V W X Y Z