Song name
# A B C D E F G H I J K L M N O P Q R S T U V W X Y Z

Afi - Sacrilege tab

-------------------------------------------------------------------------------
			    Sacrilege - AFI
-------------------------------------------------------------------------------
Tabbed by:cacophonyfan
Email:

Tuning:this is tabbed in standard, the real song is half a step down, but i tabbed it in 
it will sound fine if you play it this way with the song though.
                                    +       +     +     +
e|--------------------------------------------------------------------------|
B|--------------------------------------------------------------------------|
G|--------10-8-6-8-6-5-3---3--------10-8-0--8-6-0-6-5-0-5-3-0---------------|
D|-----------------------6------------------------------------6-4-----------|
A|--------------------------------------------------------------------------|
E|--------------------------------------------------------------------------|
                                  (the 0's above should be 6's pitch wise on the d,but 
lick origionally is played by pulloffs to the open g, but remember we are trying to play 
solo in standard tuning, not half step down :) )
e|-------------------------13--13--13---------------------------------------|
B|-------------------------16b-16b-16b--------------------------------------|
G|--------------3-6-5-5-----------------------------------------------------|
D|--------3-4-6-------------------------16-15-16-18-15-16-\-----------------|
A|-3-4-6--------------------------------16-15-16-18-15-16-\-----------------|
E|--------------------------------------------------------------------------|
                   (trem pick the 13 and 11 notes)
e|----------------------------------------------------------------------------|
B|-----------------13---------13----------------------------------------------|
G|-3-5-6-------------13-11-13----13-------------------------------------------|
D|--6-6-----------------------------------------------------------------------|
A|----------------------------------------------------------------------------|
E|----------------------------------------------------------------------------|

e|-----------------------------------20-------------------------------------|
B|--11-13-14-13-14-16-14-16-18-14-16----------------------------------------|
G|--------------------------------------------------------------------------|
D|--------------------------------------------------------------------------|
A|--------------------------------------------------------------------------|
E|--------------------------------------------------------------------------|

there may be a little flub up here and there, but it is i'd say 90 % right.make 
in the comment section as needed
************************************

| /   slide up
| \   slide down
| h   hammer-on
| p   pull-off
| ~   vibrato
| +   harmonic
| x   Mute note
| b   Bend
| pb  Pre-bend
| br  Bend release
| pbr Pre-bend release
| brb Bend release bend

************************************
Tap to rate this tab
# A B C D E F G H I J K L M N O P Q R S T U V W X Y Z