Song name
# A B C D E F G H I J K L M N O P Q R S T U V W X Y Z

Afi - Prayer Position tab

The Prayer Position


INTRO
|-----000000000000---000000-0-0-0---|-------------------------|
|:--3/555555555555-3/555555-6-6-6--:|-------------------------|
|-----------------------------------|------44444---quick------|
|-----------------------------------|--0^2-22222----rest------|
|:---------------------------------:|--0^2-22222--------------|
|-----------------------------------|------00000--------------|


verse
----------------------------------------------------------------|
----------------------------------------------------------------|
-4-----44------444444---4-----44------444444---------5-------2--|
-2-----22------222222---2-----22------222222-----5---5-------2--|
-2-===-22-====-222222---2-===-22-====-222222-----5---3---xxx-0--|
-0-000-00-0000-000000---0-000-00-0000-000000-x00-3---3---xxx-0--|



verse
----------------------------------------------------------------|
----------------------------------------------------------------|
-4-----44------444444---4-----44------444444---------7------9---|
-2-----22------222222---2-----22------222222-----5---7------9---|
-2-===-22-====-222222---2-===-22-====-222222-----5---5------7---|
-0-000-00-0000-000000---0-000-00-0000-000000-x00-3---5------7---|



PRE-CHORUS
----------------------------------------|
----------------------------------------|
----------7^9-99-7^9-99-7^999-----------|
-----2----7^9-99-7^9-99-7^999-x\pick----|
--=--2----7---77-7---77-7--77-x\\scrape-|
--0--0--------------------------\\------|


CHORUS
----------------------------------------------------------|
----------------------------------------------------------|
-55-------------77-----99-------55-------------77--7----7-|
-55-----55------77-----99-------55-----55------77--7----7-|
-33-XXX-55-XXXX-55-XXX-77-XXXX--33-XXX-55-XXXX-55-X5-XXX5-|
-33-XXX-33-XXXX-55-XXX-77-XXXX--33-XXX-33-XXXX-55-X5-XXX5-|



CHORUS
--------------------------------------------------------------|
--------------------------------------------------------------|
-55-------------77-----99-------55-------------2-----2------3-|
-55-----55------77-----99-------55-----55------2-----2------3-|
-33-XXX-55-XXXX-55-XXX-77-XXXX--33-XXX-55-XXXX-0-----0--XXX-1-|
-33-XXX-33-XXXX-55-XXX-77-XXXX--33-XXX-33-XXXX-0-----0--XXX-1-|



verse
---------------------------------------------------------------|
---------------------------------------------------------------|
-4-----44------444444--4-----44------444444---------5-------2--|
-2-----22------222222--2-----22------222222-----5---5-------2--|
-2-===-22-====-222222--2-===-22-====-222222-----5---3---xxx-0--|
-0-000-00-0000-000000--0-000-00-0000-000000-x00-3---3---xxx-0--|



verse
-------------------------------------------------------------------|
-------------------------------------------------------------------|
-4-----44------444444--------4-----44------444444---------7------9-|
-2-----22------222222----(7)-2-----22------222222-----5---7------9-|
-2-===-22-====-222222-(7)-0--2-===-22-====-222222-----5---5------7-|
-0-000-00-0000-000000-Harm.--0-000-00-0000-000000-x00-3---5------7-|



PRE-CHORUS
----------------------------------------|
----------------------------------------|
----------7^9-99-7^9-99-7^999-----------|
-----2----7^9-99-7^9-99-7^999-x\pick----|
--=--2----7---77-7---77-7--77-x\\scrape-|
--0--0--------------------------\\------|



CHORUS
----------------------------------------------------------|
----------------------------------------------------------|
-55-------------77-----99-------55-------------77--7----7-|
-55-----55------77-----99-------55-----55------77--7----7-|
-33-XXX-55-XXXX-55-XXX-77-XXXX--33-XXX-55-XXXX-55-X5-XXX5-|
-33-XXX-33-XXXX-55-XXX-77-XXXX--33-XXX-33-XXXX-55-X5-XXX5-|



CHORUS
--------------------------------------------------------------|
--------------------------------------------------------------|
-55-------------77-----99-------55-------------2-----2--------|
-55-----55------77-----99-------55-----55------2-----2--------|
-33-XXX-55-XXXX-55-XXX-77-XXXX--33-XXX-55-XXXX-0-----0--------|
-33-XXX-33-XXXX-55-XXX-77-XXXX--33-XXX-33-XXXX-0-----0--------|


Bridge (clean)
------------------------------------------------------------------|
------------------------------------------------------------------|
----------------------------------------------0-------------------|
--------0-------------2--------0------------------------0---------|
------3---3---3-----2--------3---3---3-----2----------3---3---3---|
----0-------3---3-0--------0-------3---3-0----------0-------3---3-|

Bridge
------------------------------------|
------------------------------0-----|
--------3---------------------------|
---------------0--------------------|
------2------3---3---3-----2--------|
----0------0-------3---3-0----------|

Bridge
------------------------------------------------------------------|
------------------------------------------------------------------|
----------------------------------------------0-------------------|
--------0-------------2--------0------------------------0---------|
------3---3---3-----2--------3---3---3-----2----------3---3---3---|
----0-------3---3-0--------0-------3---3-0----------0-------3---3-|

Bridge
-------------------------------0-----|
-------------------------------0-----|
--------3----------------------0-----|
---------------0---------------2-----|
------2------3---3---3-----2---2-----|
----0------0-------3---3-0-----0-----|


PRE-CHORUS
------------------------------|
------------------------------|
7^9-99-7^9-99-7^999-----------|
7^9-99-7^9-99-7^999-x\pick----|
7---77-7---77-7--77-x\\scrape-|
----------------------\\------|


CHORUS
----------------------------------------------------------|
----------------------------------------------------------|
-55-------------77-----99-------55-------------77--7----7-|
-55-----55------77-----99-------55-----55------77--7----7-|
-33-XXX-55-XXXX-55-XXX-77-XXXX--33-XXX-55-XXXX-55-X5-XXX5-|
-33-XXX-33-XXXX-55-XXX-77-XXXX--33-XXX-33-XXXX-55-X5-XXX5-|


CHORUS
-----------------------------------------------------------------|
-----------------------------------------------------------------|
-55-------------77-----99-------55-------------2222222---PICK----|
-55-----55------77-----99-------55-----55------2222222-X\SCRAPES-|
-33-XXX-55-XXXX-55-XXX-77-XXXX--33-XXX-55-XXXX-0000000-X\\X\\----|
-33-XXX-33-XXXX-55-XXX-77-XXXX--33-XXX-33-XXXX-0000000----X\\\---|



OUTRO
||----------------------------------------------------------------|
||----------------------------------------------------------------|
||--------------------------------------------------7-10-9-99-----|
||--2-----5-2-------2-----5-2-------2-----5-2-------7--8-9-99-----|
||--2-===-5-2-====--2-===-5-2-====--2-===-5-2-====--5--8-7-77-==--|
||--O-000-3-0-0000--O-000-3-0-0000--O-000-3-0-0000--5----7-77-00--|



OUTRO
----------------------------------------------------------------||
----------------------------------------------------------------||
-------------------------------------------------7--------------||
--2-----5-2-------2-----5-2-------2-----5-2------7----9---------||
--2-===-5-2-====--2-===-5-2-====--2-===-5-2-====-5-==-7---222---||
--O-000-3-0-0000--O-000-3-0-0000--O-000-3-0-0000-5-00---0-000---||
Tap to rate this tab
 
# A B C D E F G H I J K L M N O P Q R S T U V W X Y Z