Song name
# A B C D E F G H I J K L M N O P Q R S T U V W X Y Z

After The Burial - A Vicious Reforming Of Features tab

Help us improve GuitareTab! Take a short survey!
-------------------------------------------------------------------------------
After the Burial : A Vicious Reforming of Features
-------------------------------------------------------------------------------

Tabbed by: Foster (bornofmaya)
Website: http://www.last.fm/user/bornofmaya
Tuning: Drop B
Notes: This is my first tab! I used this video for help http://www.youtube.com/watch?v=JYeXulJb8AI


Intro Riff (0:00 - 0:06)

|---------------------------------------|
|---------------------------------------|
|---------------------------------------|
|---------------------------------------|
|-4-4--4--4--4-4--4--4--4--4--4-4--4--4-|
|-6-6--6--6--6-6--6--6--6--6--6-6--6--6-|
  R L  R  L  R L  R  L  R  L  R L  R  L

Intro/Main Riff (0:07 - 0:19)
Pattern: (A x2, B x1) x2
Notes: not sure about the rhythm.

A                          B
|--------------------------|---------------|
|--------------------------|---------------|
|--------------------------|---------------|
|--------------------------|---------------|
|-4-44-4-44-4-44-4-44-4444-|4-44-4-44-4444-|
|-6-66-6-66-6-66-6-66-6666-|6-66-6-66-6666-|
    **   **   **   **  * *    **   **  * *

Main Riff Variated (0:20 - 0:59)
Notes: just follow the rhythm of the song.

|---------------------------------------------------------|
|---------------------------------------------------------|
|----18----18-------16----16------14----14-------13----13-|
|-15-----15-----14------14----13------13-----11------11---|
|---------------------------------------------------------|
|---------------------------------------------------------|

Riff 1 (1:00 - 1:26)
Repeat: x8

|------------------------------------------|
|------------------------------------------|
|------------------------------------------|
|------------------------------------------|
|------------------------------------------|
|-6668-6-6668-6-668-6-668-6-68-6-68-66-6-6-|
  **** * **** * *** * *** * ** * ** ** * *

Riff 2 (1:53 - 2:17)
Pattern: A x12, B x12, C x12, D x12

A     B     C      D
|-----|-----|------|--------|
|-----|-----|------|--------|
|-----|-----|------|--------|
|-----|-----|------|--------|
|---5-|---8-|---12-|-----15-|
|-00--|-33--|-77---|-1010---|
  **    **    **     * *

Riff 3 (2:18 - 2:20)

|-------------------------------|
|-------------------------------|
|-------------------------------|
|-------------------------------|
|-12---12---11-11--11---11---11-|
|----7----7---6--6----6----6----|
     *    *   *  *    *    *

Riff 4 (2:21 - 2:47)
Pattern: A x8, B x8

A                   B
|-------------------|------------------|
|-------------------|------------------|
|-------------------|------------------|
|-------------------|------------------|
|-12-12b--12---12---|-11-11--11---11---|
|---7---7----7----7-|---6--6----6----6-|
    *   *    *    *     *  *    *    *

Riff 5 (2:49 - 3:15)
Repeat: x8
Notes: Not sure about this.

|---------------------------------|
|---------------------------------|
|---------------------------------|
|---------------------------------|
|-12---12---11-11-----------------|
|----7----7---6--6-11-10-8-10-876-|
     *    *   *  *            **

Riff 6 (3:16 - 3:41)
Repeat: x2

|----------------------------------------------|--------------------------------------------------|
|----------------------------------------------|--------------------------------------------------|
|----------------------------------------------|--------------------------------------------------|
|----------------------------------------------|--------------------------------------------------|
|----------------------------------------------|--------------------------------------------------|
|-7-6--66-6-6--66-6-6-6--66--66-6-6--66-6-6-7b-|-7-6--66-6-6--66-6-6--66--66-6-6--66-6-6-66--66-6-|
       ** * *  ** * * *  **  ** * *  ** * *           ** * *  ** * *  **  ** * *  ** * * **  ** *

Riff 7 (3:42 - 4:21)
Repeat: x2
Notes: not sure about the rhythm.

|-------------------|---------------------|----------------|-------|
|-------------------|---------------------|----------------|-------|
|-------------------|---------------------|----------------|-------|
|-11---11--11----11-|-9---9---9---9---9---|-7--7---7---7---|-6---6-|
|-------------------|---------------------|----------------|-------|
|---11---11---11----|--9----9---9---9---9-|---7--7---7---7-|---6---|

|-------------|-----------------|-------------------|----------------------|----------------|
|-------------|-----------------|-------------------|----------------------|----------------|
|-------------|-----------------|-------------------|----------------------|----------------|
|-16----16----|-15---15---15----|-14----14----14----|-13----13----13----13-|-12----12----12-|
|-------------|-----------------|-------------------|----------------------|----------------|
|----16----16-|----15---15---15-|----14----14----14-|----13----13----13----|----12----12----|

(4:22 - 4:29)

|-----|
|-----|
|-----|
|-11~-|
|-11~-|
|-11~-|

Ending (4:30 - 5:49)
Repeat: until end
Notes: no solo.

|-------------------------------------------------------|
|-------------------------------------------------------|
|-------------------------------------------------------|
|-11-1111-11-1111-9-99-9-99-9-97-7-77-777-777-777-666-6-|
|-8--8-8--7--7-7--7-77-7-66-6-66-6-66-666-555-555-444-4-|
|-------------------------------------------------------|


Legend:
| R : right guitar
| L : left guitar
| * : palm mute
| b : bend
| / : slide up
| \ : slide down
| h : hammer-on
| p : pull-off
| ~ : vibrato
| + : harmonic
| x : mute note
===============================================================================
Related for A Vicious Reforming Of Features tab