Song name
# A B C D E F G H I J K L M N O P Q R S T U V W X Y Z

After The Fall - Close tab

close:
by breakdown these guys are awesome there an aussie band and they rock!not many people 
of these guys but there good, enjoy the tab!
intro:
x3                        play each chord four times in this verse
E---2-2--5-5--7--5------|-o-----------------2----------|
B---3-3--6-6--8--6------|-o--o--o-----o-----3----------|
G---2-2--5-5--7--5------|-o--o--o-----o-----2----------|
D---o-o--o-o--o--o------|-2--o--o-----o----------------|
A-----------------------|-o--3--2--2--2----------------|
E-----------------------|-------3--2--o----------------|
                         "it makes me happy"

play each chord three times
E--3--2--o|                     E---2-2--5--7-----|
B--o--3--1|                     B---3-3--6--8-----|
G--o--2--2|                     G---2-2--5--7-----|
D--o-----2|                     D---o-o--o--o-----|
A--2-----o|                     A-----------------|
E--3------| x4                  E-----------------|
im so close!
thats maily the riff for the hole song.
solo:
E--3-6-9----12-10------------6-------11------4--------|
B-------5---------4-------13---5-------6-------5------|
G---------7---------2---7--------8-------4-------3----|
D---------------------9------------8-------10------14-|
A-----------------------------------------------------|
E-----------------------------------------------------|


E-2-2--5-5--7-7-5---2|
B-3-3--6-6--8-8-6---3|
G-2-2--5-5--7-7-5---2|
D-o-o--o-o--o-o-o---o|
A--------------------|
E--------------------|

so there it is my first tab! i hope u liked it!
Tap to rate this tab
 
# A B C D E F G H I J K L M N O P Q R S T U V W X Y Z