Song name
# A B C D E F G H I J K L M N O P Q R S T U V W X Y Z

After The Fire - Der Kommissar tab

This is the intro from falcos kommissar. it´s not very long but you´ll recognize it.

-  8-0-5-0-3---0-3-   this part you repeat six times...
-  ----------3-----
-  ----------------
-  ----------------
-  ----------------
-  ----------------

...and then you play this:

-  ----------------------------------------------------  II
-  ----------------------0-----------------------------  II
-  2-2-2---2-0-------------2-0----2-2-2---2-0---------- .II
-  ------2-----------0-2----------------2---------0-1-2 .II
-  ----------------------------------------------------  II
-  ----------------------------------------------------  II
Tap to rate this tab
# A B C D E F G H I J K L M N O P Q R S T U V W X Y Z