Song name
# A B C D E F G H I J K L M N O P Q R S T U V W X Y Z

Afterhours - Tutto Domani tab

Help us improve GuitareTab! Take a short survey!
AFTERHOURS

TUTTO DOMANI

tabbed by dan (yellowledbetter_69@hotmail.co.uk)

Drop-D tuning

|--------------------------------------------|
|--------------------------------------------|
|--------------------------------------------|
|---3-3-3-3--10-10-10-10--7-7-7-7--8-8-8-8---|
|---3-3-3-3--10-10-10-10--7-7-7-7--8-8-8-8---|
|---3-3-3-3--10-10-10-10--7-7-7-7--8-8-8-8---|
guitar 1 intro/ verses

|------------------------------------------------------------------|
|------------------------------------------------------------------|
|---10--10---9-10--9-----7--7----5--5---10--10---9-10--9---5---7---|
|------------------------------------------------------------------|
|----8---8---7--8--7-----5--5----3--3----8---8---7--8--7---3---5---|
|------------------------------------------------------------------|
guitar 2 verse fill

|------------------------------------------------------------------|
|------------------------------------------------5-5-5-5-5-5-5-5---|
|------------------------------------------------6-6-6-6-6-6-6-6---|
|---8-8-8-8-8-8-8-8-8-8-8-8-8--3-3-3-3-3-3-3-3---6-6-6-6-6-6-6-6---|
|---8-8-8-8-8-8-8-8-8-8-8-8-8--3-3-3-3-3-3-3-3---4-4-4-4-4-4-4-4---|
|---8-8-8-8-8-8-8-8-8-8-8-8-8--3-3-3-3-3-3-3-3---------------------|
verse part 2

|-----------------------------------------------------------------------|
|-----------------------------------------------------------------------|
|-----------------------------------------------------------------------|
|-----7--5--7--5--7--5---8---7---3-----7--5--7--5--7--5--7---8---7---3--|
|-----7--5--7--5--7--5---8---7---3-----7--5--7--5--7--5--7---8---7---3--|
|-----7--5--7--5--7--5---8---7---3-----7--5--7--5--7--5--7---8---7---3--|
pre-chorus  (rimandavamo sempre tutto domani amore.....)

|-----------------------------------------------|
|-----------------------------------------------|
|-----------------------------------------------|
|----12--12---10--10---8--8--8--8--8--8--8--8---|
|----12--12---10--10---8--8--8--8--8--8--8--8---|
|----12--12---10--10---8--8--8--8--8--8--8--8---|
chorus

|------------------------------------------------|
|------------------------------------------------|
|----14---14---17--17---14--14--14--14--14--14---|
|------------------------------------------------|
|----12---12---15--15---12--12--12--12--12--12---|
|------------------------------------------------|
guitar 2  this is played when the chorus is repeated for the third time

second verse is same as 1st and bridge is same for as verses, but guitar 2 changes to this halfway
through:

|------------------------------------|
|------------------------------------|
|----/7--7--7--5-7-5-----------------|
|---------------------7--7---8--8----|
|------------------------------------|
|------------------------------------|

final chorus is just guitar 1.

that's pretty much everything. any comments, suggestions etc email me.

Related for Tutto Domani tab