Song name
# A B C D E F G H I J K L M N O P Q R S T U V W X Y Z

Afterhours - Oceano Di Gomma tab

OCEANO DI GOMMA

Album: Non è per sempre ('99)



Intro

e|--------2---|------------|--------2---|------------|
B|------0-----|------------|------0-----|------------|
G|----0-------|------------|----0-------|------------|
D|------------|------------|------------|------------|
A|------------|------------|------------|------------|
E|-0----------|------------|-0----------|------------|
   Em9          C9           Em9          C9
e|--------2---|------------|--------2---|------------|
B|------0-----|---3--------|------0-----|---3--------|
G|----0-------|------------|----0-------|------------|
D|------------|------2/5-5-|------------|------2/5-5-|
A|------------|-3----3/6-6-|------------|-3----3/6-6-|
E|-0----------|------------|-0----------|------------|
   Em9          C9           Em9          C9


Riff

e|-----------------------|------------|----------------------|------------|
B|-7-8-7-8-7-8-7-8-10-12-|------------|-7-8-7-8-7-8-7--------|------------|
G|-----------------------|------------|---------------7-9-11-|------------|
D|-----------------------|------------|----------------------|------------|
A|-----------------------|------------|----------------------|------------|
E|-----------------------|------------|----------------------|------------|
   Em9                     C9           Em9                    C9


Em9 022002
Em  022000
C9  x32030


 Em9                          C9        Em9          C9
 Quando ti ho sognato eri una goccia in un oceano di gomma
 Em9                            C9     Em9                           C9
 Credo in te come tu credevi in me? un fiore d'oppio in porcellana e roccia
 
       Em          C9   Em9                  C9
 Beh almeno tu sei vero anche se sei solo pensiero
     Em           C9    Em                                            C9
 Chi di noi due è reale tu non sei più vivo e io non sono mai stato capace di amare
 

[Repeat riff]

 
 Em9                              C9 Em9              C9
 Sento che ho qualcosa qui dentro me che non voglio sapere
 Em9                     C9  Em9             C9
 I giovani cuori falliscono, Roby può interessare?

     Em            C9          Em               C9  
 Che tu per me sei vero sei il mio più dolce pensiero
    Em                    C9      Em                    C9
 Il prezzo sai è un pò il mare ti culla e non ti vuol lasciare
 Em            C9          Em               C9
 Tu per me sei vero sei il mio più dolce pensiero
    Em                  C9   Em                                              C9
 E' solo tuo e mio il finale credo che per gli altri sia solo imbarazzante e virtuale
 

Bridge

e|-----------------------|------------|----------------------|------------|
B|-7-8-7-8-7-8-7-8-10-12-|------------|-7-8-7-8-7-8-7--------|------------|
G|-----------------------|------------|---------------7-9-11-|------------|
D|-----------------------|------------|----------------------|------------|
A|-----------------------|------------|----------------------|------------|
E|-----------------------|------------|----------------------|------------|
 | Em9                     C9           Em9                    C9
e|-----------------------|------------|----------------------|------------|
B|-----------------------|------------|----------------------|------------|
G|-----------------------|------------|----------------------|------------|
D|-----------------------|-9b~--------|----------------------|-5b~--------|
A|-----------------------|------------|----------------------|------------|
E|-----------------------|------------|----------------------|------------|


e|------------|------------|------------|------------|
B|------------|------------|------------|------------|
G|------------|------------|-7--5-4---5-|-4----------|
D|------------|------------|------------|------------|
A|------------|------------|------------|------------|
E|------------|------------|------------|------------|
 | Em9          C9           Em9          C9
e|------------|------------|------------|------------|
B|------------|------------|------------|------------|
G|------------|------------|------------|------------|
D|------------|-7b~--------|-5b~--------|------------|
A|-5b~--------|------------|------------|------------|
E|------------|------------|------------|------------|


 Em9            C9       Em                             C9
 Sai per me sei vero, facciamo che sei il mio più dolce pensiero
    Em9                C9    Em9                                   C9
 Il prezzo è un po' il mare, sembra che ti culli ma poi ti vuole ingoiare


 strum: Em, C9

 Em                                    C9
 Sembra che ti culli ma poi ti vuole ingoiare   (x3)

 strum: C9
Tap to rate this tab
# A B C D E F G H I J K L M N O P Q R S T U V W X Y Z