Song name
# A B C D E F G H I J K L M N O P Q R S T U V W X Y Z

Against Me - Piss And Vinegar tab

Against Me!
Piss and Vinegar.
Tabbed by greeny23

    B5   A5   G5  F#5
e---------------------|
B---------------------|
G---------------------|Play
D--9-9--7-7--5-5--4-4-|x6
A--9-9--7-7--5-5--4-4-|
E--7-7--5-5--3-3--2-2-|

  After 2nd repeat play

e-12-10-9h10p9-10-9--9---------------------------------|
B------------------12-12-10--10------------------------|
G--------------------------12--12-11-11h12p11h12-11----|Play
D---------------------------------------------------12-|x2
A------------------------------------------------------|
E------------------------------------------------------|

Verse

     B5      A5        G5      B5
e------------------------------------|
B------------------------------------|
G------------------------------------|Play
D-9-9-9-9--7-7-7-7--5-5-5-5--9-9-9-9-|x4
A-9-9-9-9--7-7-7-7--5-5-5-5--9-9-9-9-|
E-7-7-7-7--5-5-5-5--3-3-3-3--7-7-7-7-|

        G5                A5               B5              E5
e-------------------------------------------------------------------|
B-------------------------------------------------------------------|
G-------------------------------------------------------------------|Play
D-5-5-5-5-5-5-5-5--7-7-7-7-7-7-7-7--9-9-9-9-9-9-9-9--2-2-2-2-2-2-2-2|x1
A-5-5-5-5-5-5-5-5--7-7-7-7-7-7-7-7--9-9-9-9-9-9-9-9--2-2-2-2-2-2-2-2|
E-3-3-3-3-3-3-3-3--5-5-5-5-5-5-5-5--7-7-7-7-7-7-7-7--0-0-0-0-0-0-0-0|

Chorus

    B5   A5   G5  F#5
e---------------------|
B---------------------|
G---------------------|Play
D--9-9--7-7--5-5--4-4-|x2
A--9-9--7-7--5-5--4-4-|
E--7-7--5-5--3-3--2-2-|

     B5      A5        G5      B5
e------------------------------------|
B------------------------------------|
G------------------------------------|Play
D-9-9-9-9--7-7-7-7--5-5-5-5--9-9-9-9-|x4
A-9-9-9-9--7-7-7-7--5-5-5-5--9-9-9-9-|
E-7-7-7-7--5-5-5-5--3-3-3-3--7-7-7-7-|

Verse 

        G5                A5               B5              E5
e-------------------------------------------------------------------|
B-------------------------------------------------------------------|
G-------------------------------------------------------------------|Play
D-5-5-5-5-5-5-5-5--7-7-7-7-7-7-7-7--9-9-9-9-9-9-9-9--2-2-2-2-2-2-2-2|x1
A-5-5-5-5-5-5-5-5--7-7-7-7-7-7-7-7--9-9-9-9-9-9-9-9--2-2-2-2-2-2-2-2|
E-3-3-3-3-3-3-3-3--5-5-5-5-5-5-5-5--7-7-7-7-7-7-7-7--0-0-0-0-0-0-0-0|

     B5      A5        G5      B5
e------------------------------------|
B------------------------------------|
G------------------------------------|Play
D-9-9-9-9--7-7-7-7--5-5-5-5--9-9-9-9-|x2
A-9-9-9-9--7-7-7-7--5-5-5-5--9-9-9-9-|
E-7-7-7-7--5-5-5-5--3-3-3-3--7-7-7-7-|

         G5           A5        B5
e-----------------------------------|
B-----------------------------------|
G-----------------------------------|Play
D-5-5-5-5-5-5-5-5--7-7-7-7--x-9-9-9-|x3
A-5-5-5-5-5-5-5-5--7-7-7-7--x-9-9-9-|
E-3-3-3-3-3-3-3-3--5-5-5-5--x-7-7-7-|

     B5      A5        G5      B5
e------------------------------------|
B------------------------------------|
G------------------------------------|Play
D-9-9-9-9--7-7-7-7--5-5-5-5--9-9-9-9-|x2
A-9-9-9-9--7-7-7-7--5-5-5-5--9-9-9-9-|
E-7-7-7-7--5-5-5-5--3-3-3-3--7-7-7-7-|

         G5           A5        B5
e-----------------------------------|
B-----------------------------------|
G-----------------------------------|Play
D-5-5-5-5-5-5-5-5--7-7-7-7--x-9-9-9-|x3
A-5-5-5-5-5-5-5-5--7-7-7-7--x-9-9-9-|
E-3-3-3-3-3-3-3-3--5-5-5-5--x-7-7-7-|

     B5      A5        G5      B5
e------------------------------------|
B------------------------------------|
G------------------------------------|Play
D-9-9-9-9--7-7-7-7--5-5-5-5--9-9-9-9-|x2
A-9-9-9-9--7-7-7-7--5-5-5-5--9-9-9-9-|
E-7-7-7-7--5-5-5-5--3-3-3-3--7-7-7-7-|

e-12-10-9h10p9-10-9--9---------------------------------|
B------------------12-12-10--10------------------------|
G--------------------------12--12-11-11h12p11h12-11----|Play
D---------------------------------------------------12-|x2
A------------------------------------------------------|
E------------------------------------------------------|

Outro
         G5           A5        B5
e-----------------------------------|
B-----------------------------------|
G-----------------------------------|Play
D-5-5-5-5-5-5-5-5--7-7-7-7--9-9-9-9-|x1
A-5-5-5-5-5-5-5-5--7-7-7-7--9-9-9-9-|
E-3-3-3-3-3-3-3-3--5-5-5-5--7-7-7-7-|

    B5       A5   G5  F#5
e--------------------------|
B--------------------------|
G--------------------------|Play
D--9-9-x-x-7-7-x-x-5-5-7-9-|x1
A--9-9-x-x-7-7-x-x-5-5-7-9-|
E--7-7-x-x-5-5-x-x-3-3-5-7-|

End.
Tap to rate this tab
# A B C D E F G H I J K L M N O P Q R S T U V W X Y Z