Song name
# A B C D E F G H I J K L M N O P Q R S T U V W X Y Z

Agent Felix - Baby Got Back tab

Artist: Agent Felix (http://www.agentfelix.com)
Song: Baby Got Back
Album: Collect all 4
Tabbed By: Carbs Himself
Tuning: Standard (EADGBE)

Agent Felix is no longer around, and yet they still have a decent following
in Brandon MB, a place they've never been...


Intro
|---------------------------------
|---------------------------------
|---------------------------------
|---------------------------------
|---------------------------------
|-0-0-0-3-1-1-3-1-0-0-0-3-1-1-3-1-

Verse
|---------------------------------
|---------------------------------
|---------5-5-5-5---------7-7-7-7-
|-2-2-2-2-5-5-5-5-5-5-5-5-7-7-7-7-
|-2-2-2-2-3-3-3-3-5-5-5-5-5-5-5-5-
|-0-0-0-0---------3-3-3-3---------

Chorus
|---------------------------------
|---------------------------------
|---------5-5-5-5---------7-7-7-7-
|-2-2-2-2-5-5-5-5-5-5-5-5-7-7-7-7-
|-2-2-2-2-3-3-3-3-5-5-5-5-5-5-5-5-
|-0-0-0-0---------3-3-3-3---------

Thats It
Tap to rate this tab
# A B C D E F G H I J K L M N O P Q R S T U V W X Y Z