Song name
# A B C D E F G H I J K L M N O P Q R S T U V W X Y Z

Agent Orange - Too Young To Die tab

Riff 1
At the beginning all is palm muted
After 4 times release palm mute on 6 and 7 fret
And then slowly release palm mute on open strings
E-----------------------------------|
B-----------------------------------|
G-----------------------------------|
D--6-0-0-6-0-0-6-0-7-0-0-7-0-0-7-0--|
A-----------------------------------|
E-----------------------------------|

Riff 2
E----------------------|
B--1--1---1-2---2---2--|
G--0--0---0-0---0---0--|
D----------------------|
A----------------------|
E----------------------|

Riff 3
E-----------------------|
B-----------------------|
G--5------5-5--9--------|
D--5------5-5--9--------|
A--3------3-3--7--------|
E-----------------------|

End with
E-----
B-----
G-----
D--6--
A-----
E-----

Riff 1 x8
Riff 2 x8
Riff 3 x1
Riff 1 x2
Riff 3 x1
Riff 1 x8
Solo (Riff 2 x8)
Riff 3 x1
Riff 1 x2
Riff 3 x1
Riff 1 x3
End
Tap to rate this tab
# A B C D E F G H I J K L M N O P Q R S T U V W X Y Z