Guitaretab - guitar tabs
Song name
# A B C D E F G H I J K L M N O P Q R S T U V W X Y Z

Agnes Carlsson - Release Me tab

-- Agnes  Release Me (acoustic)--

standard tuning EADGBE

tabbed by x-tasha-x

[Capo 2]

This ia a video of agnes live for the strumming pattern:
http://www.youtube.com/watch?v=ugtu7CwG_A0


Intro:
E||-5-5----5-5----5-5----3-3----|  |-5-5----5-5----5----|  
B||-0-0----3-3----5-5----0-0----|  |-0-0----3-3----5----|  
G||-----------------------------|x3|---------------6----|
D||---------------7-7----2-2----|  |---------------7----|  
A||--------2-2------------------|  |--------2-2----7----|  
E||-3-3-------------------------|  |-3-3-----------5----|  


Verse: 
E||-2----3----0--------| 
B||-3----3----0--------|  
G||-2----4----1--------|x4
D||-4----5----2--------| 
A||-2----5----2--------|  
E||------3----0--------|  


Pre Chorus: 
E||-2--------2------| 
B||-3--------2------|  
G||-2--------3------|
D||-0--------4------| 
A||----------4------|  
E||----------2------|  


[ Tab from: http://www.guitaretab.com/a/agnes-carlsson/188545.html ]
Chorus: 
E||-3----2----5----7----|  |-3----2----5--------|  
B||-3----3----5----8----|  |-3----3----5--------|  
G||-4----2----6----7----|x3|-4----2----6--------|  
D||-5----4----7----9----|  |-5----4----7--------|  
A||-5----2----7----7----|  |-5----2----7--------|  
E||-3---------5---------|  |-3---------5--------|  



Verse 2(same as verse 1)

Pre Chorus

Chorus 

Then:
E||-3----2----5----7----|  |-2--------2------|  
B||-3----3----5----8----|  |-3--------2------|  
G||-4----2----6----7----|x2|-2--------3------|  
D||-5----4----7----9----|  |-0--------4------|  
A||-5----2----7----7----|  |----------4------|  
E||-3---------5---------|  |----------2------|  


Then:
E||-5-5----5-5----5-5----3-3----|  |-5-5----5-5----5----|  
B||-0-0----3-3----5-5----0-0----|  |-0-0----3-3----5----|  
G||-----------------------------|x1|---------------6----|
D||---------------7-7----2-2----|  |---------------7----|  
A||--------2-2------------------|  |--------2-2----7----|  
E||-3-3-------------------------|  |-3-3-----------5----|  



End With Last Chorus:
E||-3----2----5----7----|  
B||-3----3----5----8----|   
G||-4----2----6----7----|x4
D||-5----4----7----9----|  
A||-5----2----7----7----|  
E||-3---------5---------|  



Related for Release Me tab