Song name
# A B C D E F G H I J K L M N O P Q R S T U V W X Y Z

Agnostic Front - Eliminator tab

                         ELIMINATOR - Agnostic Front


Tabber ~ Terry Sims (Masterofdarknes)
Tezza_01@hotmail.com

p=palm muted

INTRO:
e:--------------------------|
B:--------------------------|
G:----------------------10--|
D:-7--77777777-10-9-10--10--|
A:-7--77777777-10-9-10--8---|
E:-5--pppppppp-8--7-8-------|

e:--------------------------|
B:--------------------------|
G:----------------------12--|
D:-7--77777777-10-9-10--12--|
A:-7--77777777-10-9-10--10--|
E:-5--pppppppp-8--7-8-------|

VERSE:
e:--------------------------|
B:--------------------------|
G:----------------------10--|
D:-7--77777777-10-9-10--10--|
A:-7--77777777-10-9-10--8---|
E:-5--55555555-8--7-8-------|

e:--------------------------|
B:--------------------------|
G:----------------------12--|
D:-7--77777777-10-9-10--12--|
A:-7--77777777-10-9-10--10--|
E:-5--55555555-8--7-8-------|

CHORUS:
e:----------------------|
B:----------------------|
G:-10-1010--12---10-9-8-|
D:-10-1010--12---10-9-8-|
A:-8--pppp--10---p--p-p-|
E:----------------------|

e:------------------------|
B:------------------------|
G:-10-1010--12---12-13-14-|
D:-10-1010--12---12-13-14-|
A:-8--pppp--10---10-11-12-|
E:------------------------|

e:----------------------|
B:----------------------|
G:-10-1010--12---10-9-8-|
D:-10-1010--12---10-9-8-|
A:-8--pppp--10---p--p-p-|
E:----------------------|

e:----------------------|
B:----------------------|
G:-10--12-12-12---12-12-|
D:-10--12-12-12---12-12-|
A:-8---10-10-10---10-10-|
E:----------------------|
Tap to rate this tab
 
# A B C D E F G H I J K L M N O P Q R S T U V W X Y Z