Song name
# A B C D E F G H I J K L M N O P Q R S T U V W X Y Z

Agony Scene - Devilock tab

B-F#-B-E-G#-C# 

Intro

Guitar 1 
|------------------------------------------------------------------|
|------------------------------------------------------------------|
|.-----------------------------------------------------------------|
|.------------------10----------------------10---------------------|
|-0-----------------8--0---------------------8--0------------------|
|-0--------------------0------------------------0------------------|
|
Guitar 2
|------------------------------------------------------------------|
|------------------------------------------------------------------|
|.-----------------------------------------------------------------|
|.-----------------------------------------------------------------|
|------------------------------------------------------------------|
|----0000-0000-0000----------0000-0000-0000--------0000-0000-0000--|

Both Guitars

|----------------|
|----------------|
|---------------.|   
|---------------.| X2
|-0h8-8-8-3-3-3--|
|-0h8-8-8-3-3-3--|

Chorus

|------------|          |-----------------|
|------------|          |-----------------|
|------------|          |-----------------|
|------------| X2 then  |-----------------| Back to Intro
|-0-----8--3-|          |-7-7-7-7-7-7-7-7-|
|-0-----8--3-|          |-7-7-7-7-7-7-7-7-| 

Play Intro then Chorus again

Guitar 1 
|--------------------------------------------------------------------|
|--------------------------------------------------------------------|
|.-------------------------------------------------------------------|
|.------------------10----------------------10-----------------------|
|-0-----------------8--0--------------------8--0-------------------0-|
|-0--------------------0-----------------------0-------------------0-|
|
Guitar 2
|--------------------------------------------------------------------|
|--------------------------------------------------------------------|
|.-------------------------------------------------------------------|
|.-------------------------------------------------------------------|
|------------------------------------------------------------------0-|
|----0000-0000-0000----------0000-0000-0000--------0000-0000-0000--0-|

Play once, then..




Guitar 1 
|------------------------------------------------------------------|
|------------------------------------------------------------------|
|.-----------------------------------------------------------------|
|.------------------10----------------------10---------------------|
|-0-----------------8--0--------------------8--0-------------------|
|-0--------------------0-----------------------0-------------------|
|
Guitar 2
|------------------------------------------------------------------|
|------------------------------------------------------------------|
|.-----------------------------------------------------------------|
|.-----------------------------------------------------------------|
|------------------------------------------------------------------|
|----0000-0000-0000----------0000-0000-0000--------0000-0000-0000--|

Both Guitars

|----------------|
|----------------|
|---------------.|   
|---------------.| Play under solo X4
|-0h8-8-8-3-3-3--|
|-0h8-8-8-3-3-3--|


Chorus


|------------|          |-----------------|
|------------|          |-----------------|
|------------|          |-----------------|
|------------| X4 then  |-----------------| 
|-0-----8--3-|          |--7------------7-|
|-0-----8--3-|          |--7------------7-|


Its a little sketchy, solo has been missed out, cos I suck at tabbing stuff like that! 
Tap to rate this tab
# A B C D E F G H I J K L M N O P Q R S T U V W X Y Z