Song name
# A B C D E F G H I J K L M N O P Q R S T U V W X Y Z

Air Supply - Making Love Out Of Nothing At All tab

eow po im jayson linsao pinaghirapan ko po yan tab na yan kung sa tingin nyo mali plz 
me @ hyperjam_1990@yahoo.com

E |----------1-0-1-0----------------|
B |-1---1-3-----------3-1-0-1-------|
G |---0-----------------------------| 2x
D |---------------------------------|
A |-3-------------------------------|
E |---------------------------------|

E |----------1-0-1-0----------------|
B |-1---1-3-----------3-1-0-1-------|
G |---2-----------------------------| 2x
D |---------------------------------|
A |-0-------------------------------|
E |---------------------------------|

E |----------3----------------------|
B |-3---3-5-------------------------|
G |---4-----------------------------|
D |---------------------------------|
A |-0-------------------------------|
E |---------------------------------|

dito na lang po thx made by hyperjam
Tap to rate this tab
 
# A B C D E F G H I J K L M N O P Q R S T U V W X Y Z