Song name
# A B C D E F G H I J K L M N O P Q R S T U V W X Y Z

Air - Parade tab

Song: Parade
Artist: Air
Album: Le voyage dans la lune
Year: 2012
Tabber: beranger80@hotmail.com


Part A (0:12)
E------------------------------|----------------------------------|
b----------------------12-8----|----------------------------------|
g---7-5---8-5---10-8-----------|---5-3--7-----5---3-----------3-)-|
d------------------------------|----------3-5---3--------(3-5-----|
a------------------------------|----------------------------------|
e------------------------------|----------------------------------|x2



Part B (0:27)

   F         A#           F         A#
E------------------------|----------------------|
b------------------------|----------------------|
g------------------------|----------------------|
d---10-10-13--13-12-12---|---10-10-10-10-12-8---|
a------------------------|----------------------|
e------------------------|----------------------|x2



Part C (0:40) 
Difficult riff to tab with all the effects. 
All notes seems correct here, but the order may be different.

  C C
E--------------------------------------|
b--------------------------------------|
g---5-3---3-------3--------------------|
d-------5---5-3-5---5-3-5-3---3--------|
a---------------------------6---6-3----|
e--------------------------------------| x4



Part D (0:55)
E------------------|
b------------------|
g---------1--------|
d-------1----------|
a-----1------------|
e---1--------------|x4



Part A x4 (1:09)

Part B x2 (1:38)

Part C x4 (1:52)

End on C chord at 2:07
Tap to rate this tab
# A B C D E F G H I J K L M N O P Q R S T U V W X Y Z