Song name
# A B C D E F G H I J K L M N O P Q R S T U V W X Y Z

Airbourne - White Line Fever tab

this is my first tab that i submit and so i will start with some easy stuff:
White line fever - intro/verse
tuning: standart


 
         lead guitar
e|-----------------------------------------------------|-
h|-----------------------------------------------------|  \
g|--7h9---7-6-7-6--------------------------------------|   | 
d|----------------7---7---7---7---5--------------------|   |
a|------------------------------------7----------------|   |
e|-----------------------------------------------------|   ( 
                                                             \  
                                                               > repeat this
         rhythm guitar                                       /   for 4 times
e|-----------------------------------------------------|   (     in the 
h|--------3--------------------------------------------|   |     intro and 
g|--------2-------2---2---2---2------------------------|   |     also 4 
d|----2---0-------2---2---2---2------------------------|   |     times in 
a|----2-----------0---0---0---0-------0---2------------|  /      verse
e|----0------------------------------------------------|-

it sounds right to me.
if you have any suggestions or wishes to a song, please e-mail me: kevinb1997@gmx.at
Tap to rate this tab
 
# A B C D E F G H I J K L M N O P Q R S T U V W X Y Z