Guitaretab - guitar tabs
Song name
# A B C D E F G H I J K L M N O P Q R S T U V W X Y Z

Airbourne - Runnin Wild tab

Airbourne - Running Wild
~~~~~~~~~~~~~~~~~~~~~~~~

----------------------------------------------------------------------------
STAND UP FOR ROCK N ROLL - AIRBOURNE
----------------------------------------------------------------------------

tabbed By Ryan Boone

Intro(guitar 1 and 2)

e|--2-------2-------2-------2---------|
B|----2-3-0---2-3-0---2-3-0---2-3-0---|
G|------------------------------------|
D|------------------------------------|
A|------------------------------------|
E|------------------------------------|

E|------------------------------------|
B|------------------------------------|
G|------------------------------------|
D|--4---------------------------------|
A|--2---------------------------------|
E|------------------------------------|


e|-3-------3-------3-------3----------|
B|---2-3-0---2-3-0---2-3-0---2-3-0----|
G|------------------------------------|
D|------------------------------------|
A|------------------------------------|
E|------------------------------------|

e|------------------------------------|
B|------------------------------------|
G|------------------------------------|
D|------------------------------------|
A|-5----------------------------------|
E|-3----------------------------------|


e|-2-------2-------2-------2----------|
B|---2-3-0---2-3-0---2-3-0---2-3-0----|
G|------------------------------------|
D|------------------------------------|
A|------------------------------------|
E|------------------------------------|

e|------------------------------------|
B|------------------------------------|
G|------------------------------------|
D|------------------------------------|
A|-2----------------------------------|
E|-0----------------------------------|


e|-3-------3-------3-------3----------|
B|---2-3-0---2-3-0---2-3-0---2-3-0----|
G|------------------------------------|
D|------------------------------------|
A|------------------------------------|
E|------------------------------------|

e|------------------------------------|
B|------------------------------------|
G|------------------------------------|
D|------------------------------------|
A|-5----------------------------------|
E|-3----------------------------------|


e|-4-------4-------4-------4----------|
B|---4-5-0---4-5-0---4-5-0---4-5-0----|
G|------------------------------------|
D|------------------------------------|
A|------------------------------------|
E|------------------------------------|

e|------------------------------------|
B|------------------------------------|
G|-4----------------------------------|
D|-4----------------------------------|
A|-2-2-2-2-2-2-2-2-2-2-2-2-2-2-2-2----|
E|------------------------------------|


e|-3-------3-------3-------3----------|
B|---2-3-0---2-3-0---2-3-0---2-3-0----|
G|------------------------------------|
D|------------------------------------|
A|------------------------------------|
E|------------------------------------|

e|-3----------------------------------|
B|-3----------------------------------|
G|-0----------------------------------|
D|-0----------------------------------|
A|------------------------------------|
E|-3-3-3-3-3-3-3-3-3-3-3-3-3-3-3-3----|


e|-4-------4-------4-------4----------|
B|---4-5-0---4-5-0---4-5-0---4-5-0----|
G|------------------------------------|
D|------------------------------------|
A|------------------------------------|
E|------------------------------------|

e|------------------------------------|
B|------------------------------------|
G|-4----------------------------------|
D|-4----------------------------------|
A|-2-2-2-2-2-2-2-2-2-2-2-2-2-2-2-2----|
E|------------------------------------|


e|-3-------3-------3-------3----------|
B|---2-3-0---2-3-0---2-3-0---2-3-0----|
G|------------------------------------|
D|------------------------------------|
A|------------------------------------|
E|------------------------------------|

e|-3----------------------------------|
B|-3----------------------------------|
G|-0----------------------------------|
D|-0----------------------------------|
A|------------------------------------|
E|-3-3-3-3-3-3-3-3-3-3-3-3-3-3-3-3----|


e|-2-------2-------2-------2----------|
B|---2-3-0---2-3-0---2-3-0---2-3-0----|
G|------------------------------------|
D|------------------------------------|
A|------------------------------------|
E|------------------------------------|

e|------------------------------------|
B|------------------------------------|
G|------------------------------------|
D|-2----------------------------------|
A|-2----------------------------------|
E|-0-0-0-0-0-0-0-0-0-0-0-0-0-0-0-0----|


e|-3-------3-------3-------3----------|
B|---2-3-0---2-3-0---2-3-0---2-3-0----|
G|------------------------------------|
D|------------------------------------|
A|------------------------------------|
E|------------------------------------|

e|-3----------------------------------|
B|-3----------------------------------|
G|-0----------------------------------|
D|-0----------------------------------|
A|------------------------------------|
E|-3-3-3-3-3-3-3-3-3-3-3-3-3-3-3-3----|


Song name: Runnin' Wild
Band name: Airbourne
Tabbed by: Eski

Airbourne Rocks! this is the whole song tabbed and in order.

Tuning:
Gtr1: Standard (E,A,D,G,B,e)
Gtr2: Standard (E,A,D,G,B,e)

| pm palm mute
| /  slide up
| \  slide down
| h  hammer-on
| p  pull-off
| ~  vibrato
| +  harmonic
| x  Mute note
| b  Bend
| r  Release bend

Intro: (Gtr2)             (pm throughout)
 .....................................................................|
e|---------------------------------------------------------------------|
B|---------------------------------------------------------------------|
G|---------------------------------------------------------------------|
D|---------------------------------------------------------------------|
A|---------------------------------------------------------------------|
E|-1-1-1-1-1-1-1-1-1-1-1-1-1-1-1-1-1-1-1-1-1-1-1-1-1-1-1-1-1-1-1-1-1-1-|(repeat as needed)

Intro: (Gtr1)
    D#5                      F5          D#5                      F5
e|---------------------------------------------------------------------|
B|---------------------------------------------------------------------|
G|-8-8-8--------------------------------8-8-8---------------------10---|
D|-8-8-8---------3-----3------3---------8-8-8--------3-----3------10---|
A|-6-6-6---------1-6-3-1-6-3--3---------6-6-6--------1-6-3-1-6-3--8----|
E|-----------------4-1---4-1--1------------------------4-1---4-1-------|

   pm    pm   pm                                     pm    pm  pm
   ...   ...   .    D#5                       F5     ...   ...  .
e|---------------------------------------------------------------------|
B|---------------------------------------------------------------------|
G|-----------------8-8-8-----------------------------------------------|
D|-----3-----3---3-8-8-8---------3-----3------3----------3----3---3----|
A|-----3-----3---3-6-6-6---------1-6-3-1-6-3--3----------3----3---3----|
E|-1-1---1-1---1-------------------4-1---4-1--1-------1-1--1-1--1------|
                                       pm     pm
    D#5                       F5       ...    ...
e|---------------------------------------------------------|
B|---------------------------------------------------------|
G|-8-8-8----------------------10---------------------------|
D|-8-8-8---------3-----3------10------------3-----3--------|
A|-6-6-6---------1-6-3-1-6-3--8-------------3-----3---1----|
E|-----------------4-1---4-1------------1-1---1-1---1---4--|

Verse:
  pm   pm         pm   pm         pm   pm         pm   pm
   .   ...         .   ...         .   ...         .   ...
e|--------------------------------------------------------------------|
B|--------------------------------------------------------------------|
G|--------------------------------------------------------------------|
D|---3-----3---8\6---3-----3---8\6---3-----3---8\6---3-----3---8\6----|
A|---3-----3---8\6---3-----3---8\6---3-----3---8\6---3-----3---8\6----|
E|-1-1-1-1-1-1-6\4-1-1-1-1-1-1-6\4-1-1-1-1-1-1-6\4-1-1-1-1-1-1-6\4----|2x

Cry me a river...
Refrain:              pm   pm         pm   pm
  D#5        F5        .   ...         .   ...           D#5        F5
e|--------------------------------------------------------------------|
B|--------------------------------------------------------------------|
G|-8---------3--------------------------------------------8---------3-|
D|-8---------3-----------3-----3---8\6---3-----3---8\6----8---------3-|
A|-6---------1-----------3-----3---8\6---3-----3---8\6----6---------1-|
E|---------------------1-1-1-1-1-1-6\4-1-1-1-1-1-1-6\4----------------|

 I gotta get away...
          C5
e|-------------------------|
B|-------------------------|
G|-5--5--5-5-5-5-5-5-5-5---|
D|-5--5--5-5-5-5-5-5-5-5-3-|
A|-3--3--3-3-3-3-3-3-3-3-3-|
E|-----------------------1-|

Chorus: Runnin...
    F5                      D#5
e|------------------------------------------------|
B|------------------------------------------------|
G|-10-10--------------------8-8-------------------|
D|-10-10-------3-----3------8-8-------3-----3-----|
A|-8--8--------1-6-3-1-6-3--6-6-------1-6-3-1-6-3-|
E|---------------4-1---4-1--------------4-1---4-1-|2x

Verse:
  pm   pm         pm   pm         pm   pm         pm   pm
   .   ...         .   ...         .   ...         .   ...
e|--------------------------------------------------------------------|
B|--------------------------------------------------------------------|
G|--------------------------------------------------------------------|
D|---3-----3---8\6---3-----3---8\6---3-----3---8\6---3-----3---8\6----|
A|---3-----3---8\6---3-----3---8\6---3-----3---8\6---3-----3---8\6----|
E|-1-1-1-1-1-1-6\4-1-1-1-1-1-1-6\4-1-1-1-1-1-1-6\4-1-1-1-1-1-1-6\4----|2x

Cry me a river...
Refrain:              pm   pm         pm   pm
  D#5        F5        .   ...         .   ...           D#5        F5
e|--------------------------------------------------------------------|
B|--------------------------------------------------------------------|
G|-8---------3--------------------------------------------8---------3-|
D|-8---------3-----------3-----3---8\6---3-----3---8\6----8---------3-|
A|-6---------1-----------3-----3---8\6---3-----3---8\6----6---------1-|
E|---------------------1-1-1-1-1-1-6\4-1-1-1-1-1-1-6\4----------------|

 I gotta get away...
          C5
e|-------------------------|
B|-------------------------|
G|-5--5--5-5-5-5-5-5-5-5---|
D|-5--5--5-5-5-5-5-5-5-5-3-|
A|-3--3--3-3-3-3-3-3-3-3-3-|
E|-----------------------1-|

Chorus: Runnin...
    F5                      D#5
e|------------------------------------------------|
B|------------------------------------------------|
G|-10-10--------------------8-8-------------------|
D|-10-10-------3-----3------8-8-------3-----3-----|
A|-8--8--------1-6-3-1-6-3--6-6-------1-6-3-1-6-3-|
E|---------------4-1---4-1--------------4-1---4-1-|4x

Solo:(Gtr1)
Hey hey hey!          Hey Hey Hey!
e|----------10-8----------------------------------|
B|----------11-9----------------------------------|
G|---------------10~~~------------10-8------------|
D|-------------------------------------10-8-6~~-3-|
A|------------------------------------------------|
E|------------------------------------------------|

Hey hey hey!        Hey Hey Hey
e|-------------------------------------12b13r~~---|
B|------------------------------12b13r------------|
G|------------------------------13b14r------------|
D|------------------------------------------------|
A|----------6-8-8~~~------------------------------|
E|------------------------------------------------|

Solo: (Gtr2)
Hey Hey Hey!
    F5                   F5
e|------------------------------------------|
B|------------------------------------------|
G|------------------------------------------|
D|-3-3-3---3-----3------3-3-3---3-----3-----|
A|-3-3-3---1-6-3-1-6-3--3-3-3---1-6-3-1-6-3-|
E|-1-1-1-----4-1---4-1--1-1-1-----4-1---4-1-|4x

    D#5                      F5          D#5                      F5
e|---------------------------------------------------------------------|
B|---------------------------------------------------------------------|
G|-8-8-8--------------------------------8-8-8---------------------10---|
D|-8-8-8---------3-----3------3---------8-8-8--------3-----3------10---|
A|-6-6-6---------1-6-3-1-6-3--3---------6-6-6--------1-6-3-1-6-3--8----|
E|-----------------4-1---4-1--1------------------------4-1---4-1-------|

No I wont turn around...
  pm   pm         pm   pm         pm   pm         pm   pm
   .   ...         .   ...         .   ...         .   ...
e|--------------------------------------------------------------------|
B|--------------------------------------------------------------------|
G|------------------------------------------------------------------8-|
D|---3-----3---8\6---3-----3---8\6---3-----3---8\6---3-----3---8\6--8-|
A|---3-----3---8\6---3-----3---8\6---3-----3---8\6---3-----3---8\6--6-|
E|-1-1-1-1-1-1-6\4-1-1-1-1-1-1-6\4-1-1-1-1-1-1-6\4-1-1-1-1-1-1-6\4----|


Cry me a river...
Refrain:              pm   pm         pm   pm
  D#5        F5        .   ...         .   ...           D#5        F5
e|--------------------------------------------------------------------|
B|--------------------------------------------------------------------|
G|-8---------3--------------------------------------------8---------3-|
D|-8---------3-----------3-----3---8\6---3-----3---8\6----8---------3-|
A|-6---------1-----------3-----3---8\6---3-----3---8\6----6---------1-|
E|---------------------1-1-1-1-1-1-6\4-1-1-1-1-1-1-6\4----------------|

 I gotta get away...
          C5
e|-------------------------|
B|-------------------------|
G|-5--5--5-5-5-5-5-5-5-5---|
D|-5--5--5-5-5-5-5-5-5-5-3-|
A|-3--3--3-3-3-3-3-3-3-3-3-|
E|-----------------------1-|

Chorus: Runnin...
    F5                      D#5
e|------------------------------------------------|
B|------------------------------------------------|
G|-10-10--------------------8-8-------------------|
D|-10-10-------3-----3------8-8-------3-----3-----|
A|-8--8--------1-6-3-1-6-3--6-6-------1-6-3-1-6-3-|
E|---------------4-1---4-1--------------4-1---4-1-|8x

Outro:
Hey Hey Hey!....
    F5      A#5 D#5      F5           A#5
e|--------------------------------------------|
B|--------------------------------------------|
G|----------8---------------------8-----------|
D|-3-3-3--3-8-6-8-8-6-3--3-3-3--3-8-6-8-8-6-3-|
A|-3-3-3--3-6-6-8-8-6-3--3-3-3--3-6-6-8-8-6-3-|
E|-1-1-1--1---4-6-6-4-1--1-1-1--1---4-6-6-4-1-|4x

   F5
e|-----|
B|-----|
G|-----|
D|-3-3-|
A|-3-3-|
E|-1-1-|

~~~~~~~~~~~~~~~~~~~~~~~~~~~~~~~~~~~~~~~~
Too much too young too fast by airbourne

~~~~~~~~~~~~~~~~~~~~~~~~~~~~~~~~~~~~~~~~

E|----------------------------3-3---------------3-----------------------------|
B|----------------3-3---------3-3----3-3----3---3-----------------------------|
G|--9-9----7-7----2-2----2----0-0----2-2----2---0----2------------------------|
D|--7-7----5-5----0-0----2----0-0----0-0----0---0----2------------------------|
A|--0-0----0-0----0-0----0-----------0-0-------------0------------------------|
E|----------------------------3-3-----------2---3---------x-x-12/-------------|

E|----------------------------3-3---------------------------------------------|
B|----------------------------3-3----3-3----3---------------------------------|
G|--9~9----7-7----7-7----2----0-0----2-2----2----0----2---2---2---------------|
D|--7-7----5-5----4-4----2----0-0----0-0----0----0----2---2---2---------------|
A|--0~0~---0-0----0-0----0-----------0-0----0---------0---0---0---------------|
E|----------------------------3-3----------------3----------------------------|

E|-------------------------------3-------------3------------------------------|
B|-------------------------------3-------------3------------------------------|
G|--2----------------------------0--------2----0--2--2--2----2----------------|
D|--2----------------------------0--0--2--2----0--0--2--2----2----------------|
A|--0-0-0-0-0-0-0-0-0-0-0-0-0-0-----0--0--0-------0--0--0----0-0-0-0-0-0-0----|
E|-------------------------------3-------------3------------------------------|

E|-----------------3--------------3-------------------------------------------|
B|-----------------3--------------3-------------------------------------------|
G|-----------------0--------2--x--0----2--2-----2--------2----2---------------|
D|-----------------0--0--2--2--x--0----0--2-----2--------2----2---------------|
A|--0-0-0-0-0-0-0-----0--0--0--x-------0--0--0--0--0-----0----0-0-0-0-0-0-0---|
E|-----------------3--------------3-------------------3-----------------------|

E|-----------------3-----------------3--------------------3----------------------|
B|-----------------3-----------------3--------------------3----------------------|
G|-----------------0--------2-----2--0--2--2-----2-----2--0----------------------|
D|-----------------0--0--2--2-----2--0--0--2-----2-----2--0--------------------2-|
A|--0-0-0-0-0-0-0-----0--0--0--0--0-----0--0--0--0--0--0-----------------------2-|
E|-----------------3-----------------3--------------------3--3-3-3-3-3-3-3-2-0-0-|

E|---------------------------3-----------------------3-3-------------------------|
B|-----------------5-5-5-----3--3--------------3-----3-3--3-3---3----------------|
G|-----------------4-4-4-----0--2--9-9-9/-7-7--2--2--0-0--2-2---2--0--2----------|
D|--2-2-2-2-2-2-2--2-2-2--0--0--0--7-7-7/-5-5--0--2--0-0--0-0---0--0--2----------|
A|--2-2-2-2-2-2-2---------0-----0--------------0--0-------------0-----0----------|
E|--0-0-0-0-0-0-0------------3-----------------------3-3-----------3----x-x-12/--|

E|------------------3-3-3--------------------------------------------------------|
B|------------3-----3-3-3--3-3--3------------------------------------------------|
G|--9-9--7-7--2--2--0-0-0--2-2--2--0---2--2--2-----------------------------------|
D|--7-7--5-5--0--2--0-0-0--0-0--0--0---2--2--2-----------------------------------|
A|------------0--0--------------0------0--0--0-----------------------------------|
E|------------------3-3-3----------3---------------------------------------------|

E|-------------------------------3-------------3------------------------------|
B|-------------------------------3-------------3------------------------------|
G|--2----------------------------0--------2----0--2--2--2----2----------------|
D|--2----------------------------0--0--2--2----0--0--2--2----2----------------|
A|--0-0-0-0-0-0-0-0-0-0-0-0-0-0-----0--0--0-------0--0--0----0-0-0-0-0-0-0----|
E|-------------------------------3-------------3------------------------------|

E|-------------------------------------------------3-------------3------------|
B|-------------------------------------------------3-------------3------------|
G|--2-2---2-----2----2-----------------------------0-------2-----0------------|
D|--0-2---2-----2----2-----------------------------0-0--2--2-----0------------|
A|--0-0-0-0-0-0-0----0-0-0-0-0-0-0-0-0-0-0-0-0-0-0---0--0--0-0-0--------------|
E|-------------------------------------------------3-------------3------------|

E|---------------------------------------------3------------3-----------------|
B|---------------------------------------------3------------3-----------------|
G|--2-2---2-----2--2---------------------------0-----2------0-----------------|
D|--0-2---2-----2--2---------------------------0-0-2-2------0-----------------|
A|--0-0-0-0-0-0-0--0-0-0-0-0-0-0-0-0-0-0-0-0-0---0-0-0-0----------------------|
E|---------------------------------------------3---------3--3-----------------|
[ Tab from: http://www.guitaretab.com/a/airbourne/92706.html ]
E|----------------------------------------------3--------------3-----------------|
B|----------------------------------------------3--------------3-----------------|
G|--2-2---2------2--2---------------------------0-----2-----2--0-----------------|
D|--0-2---2------2--2---------------------------0-0-2-2-----2--0-----------------|
A|--0-0-0-0-0----0--0-0-0-0-0-0-0-0-0-0-0-0-0-0---0-0-0--0--0--------------------|
E|------------3---------------------------------3--------------3-----------------|

E|-----------------3-------------------------------------------------------------|
B|-----------------3-------------------------------------------------------------|
G|--2-2---2--------0-------------------------------------------------------------|
D|--0-2---2--------0--0-0-0-----------------------2--2-2-2-2-2-2-2---------------|
A|--0-0-0-0--3--2---------------------------------2--2-2-2-2-2-2-2---------------|
E|-----------------3--3-3-3-3-3-3-3-3-3-3-3-3-2-0-0--0-0-0-0-0-0-0---------------|

E|-----------3-------------------3-3---------------------------------------------|
B|--5-5-5----3--------------3----3-3--3-3--3-------------------------------------|
G|--4-4-4--0-0--9-9-9/-7-7--2-2--0-0--2-2--2--0--3-------------------------------|
D|--2-2-2--0-0--7-7-7/-5-5--0-2--0-0--0-0--0--0--2-------------------------------|
A|--------------------------0-0------------0-----0-------------------------------|
E|-----------3-------------------3-3----------3----x-x-12/-----------------------|

E|---------------3-3------------------------------------------3--2---------------|
B|------------3--3-3--3-3--3----------------------------------3--3---------------|
G|--9-9--7-7--2--0-0--2-2--2--0--2--2---------------9-9-9--0--0--2---------------|
D|--7-7--5-5--0--0-0--0-0--0--0--2--2------2-2-2-2--9-9-9--0--0--0---------------|
A|------------0------------0-----0--0------2-2-2-2--7-7-7--------0---------------|
E|---------------3-3----------3-------3-2--0-0-0-0------------3------------------|

solo

E|------5------------------------------------------17----------------------------|
B|----5---8-5---5---5-8-5---5---5-8-5-8-8-8-----17----17-20-20-20-17-17----------|
G|--7---------7---7-------7---7--------------19----------------------------------|
D|-------------------------------------------------------------------------------|
A|-------------------------------------------------------------------------------|
E|-------------------------------------------------------------------------------|

E|-------------------------------------17----------------------------17----------|
B|-------------------17-------------17----20-17----17-20-17----17--x-20-20-------|
G|--19-17------------17----------19-------------19----------19---x---------------|
D|-------19-17----------19-17-19-------------------------------------------------|
A|-------------19-19-------------------------------------------------------------|
E|-------------------------------------------------------------------------15/---|

E|--------------------------------------------------------------12---------------|
B|-----------------------------------------------------------12----15-12----12-15|
G|-----------------------------------------------12----12-14-------------14------|
D|-----------------------------------------------12-14---------------------------|
A|--7-5-7-5-7-7-5-4-5-4-5-4-5-4-5-------------14---------------------------------|
E|--------------------------------3-4-5-5-3-2------------------------------------|

E|----------------------------3-3---------------------------------------------|
B|----------------------------3-3----3-3----3---------------------------------|
G|--9~9----7-7----7-7----2----0-0----2-2----2----0----2---2---2---------------|
D|--7-7----5-5----4-4----2----0-0----0-0----0----0----2---2---2---------------|
A|--0~0~---0-0----0-0----0-----------0-0----0---------0---0---0---------------|
E|----------------------------3-3----------------3----------------------------|

E|--------------------3-3---------------------------------------------------------|
B|--------------3-----3-3--3-3--3-------------------------------------------------|
G|--9~9----7-7--2--2--0-0--2-2--2--0--2-2-2---------------------------------------|
D|--7-7----5-5--0--2--0-0--0-0--0--0--2-2-2--5-5-5-5-5-5-5--7--7-7-7-7-7-7-7-7-7--|
A|--0~0~---0-0--0--0------------0-----0-0-0--3-3-3-3-3-3-3--4--5-5-5-5-5-5-5-5-5--|
E|--------------------3-3----------3----------------------------------------------|

E|-----------------------------------3-3-------------------------------------|
B|-------------------------3-3-3-----3-3---3-3--3----------------------------|
G|-------------9-9-9-9--7--2-2-2--2--0-0---2-2--2--0--2-2-2------------------|
D|--9--1212/--7-7-7-7--5--0-0-0--2--0-0---0-0--0--0--2-2-2------------------|
A|--7--1010/---------------------0-------------0-----0-0-0------------------|
E|-----------------------------------3-3-----------3-------------------------|

E|---------------------------------------------------------------------------|
B|--10-10-10-10--8--8-8-8--7-7--8--10--10--8--8--7------7-7-5----------------|
G|--12-----------10--------9----10-12------10----9--9-5-7-7-5----------------|
D|------------------------------------------------------------7--7-5-7-------|
A|---------------------------------------------------------------------------|
E|---------------------------------------------------------------------------|

E|--17-17----15-15----15-14-14----------17-----15-14-14-14/------------------|
B|--------20-------19----------17-18-20--------18----17-17/----7-7-5---------|
G|-----------------------------------------0-0-------------5-7-7-7-5---------|
D|-----------------------------------------0-0-------------------------------|
A|---------------------------------------------------------------------------|
E|---------------------------------------------------------------------------|

E|---------------------------------------------------------------------------|
B|---------------------------------------------------------------------------|
G|---------------------------------------------------------------------------|
D|--7-7-5--------------------------------------------------------------------|
A|--------7-6-5-3-0----------------------------------------------------------|
E|---------------------------------------------------------------------------|

-------------------------------------------------------------------------------
			     DIAMOND IN THE ROUGH - Airbourne
-------------------------------------------------------------------------------
Tabbed by: MonstaMan
Email: teeelo@hotmail.co.uk

Tuning: DGCFAd

INTRO & CHORUS
d|--------------------------------------------|
A|--------------------------------------------|
F|----------7----7--5-7-----------------------|
C|--2---5---7----7--5-7--5---7---2----2--0-2--|
G|--2---5---5----5--5-5--5---7---2----2--0-2--|
D|--0---3----------------3---5---0----0--0-0--|

VERSE
Guitar 1
d|------------------------|
A|------------------------|
F|------------------------|
C|--2-------5--7--5-7--7--|
G|--2-------5--7--5-7--7--|
D|--0-------3--5--3-5--5--|

Guitar 2
d|--------------------------|
A|--------------------------|
F|--------------------------|
C|--2--2--2--2--2--2--2--2--|
G|--2--2--2--2--2--2--2--2--|
D|--0--0--0--0--0--0--0--0--|

Guitar 1
d|-----------------------------------------------|
A|-----------------------------------------------|
F|--2--------5--7--5-7--7--2-------5--7--5-7-----|
C|--2--------5--7--5-7--7--2-------5--7--5-7--5--|
G|--0--------3--5--3-5--5--0-------3--5--3-5--5--|
D|--------------------------------------------3--|

Guitar 2

d|-----------------------------------------------------------------|
A|-----------------------------------------------------------------|
F|----2-2-2---2-2-2-2-2-2-2-2-2-2-2---2-2-2---2-2-2-2-2-2-2-2-2----|
C|----2-2-2---2-2-2-2-2-2-2-2-2-2-2---2-2-2---2-2-2-2-2-2-2-2-2-5--|
G|--3-0-0-0---0-0-0-0-0-0-0-0-0-0-0-3-0-0-0---0-0-0-0-0-0-0-0-0-5--|
D|----------3-------------------------------3-------------------3--|

Guitar 1 & 2
d|----------------------|
A|----------------------|
F|--4--------2-------7--|
C|--4--------2----5--7--|
G|--2--------0----5--5--|
D|----------------3-----|


| /  slide up
| \  slide down
| h  hammer-on
| p  pull-off
| ~  vibrato
| +  harmonic
| x  Mute note
===============================================================================


~~~~~~~~
Fat City
~~~~~~~~

This was a requested tab, I just got the intro.

tabbed by Ryan Boone


e|----------3-3-----------------------------|
B|----------3-3--3-3------------------------|
G|-2-----2--0-0--2-2------------------------|
D|-2-----2--0-0--0-0------------------------|
A|-0-3h4-0-------0-0------------------------|
E|----------3-3-----------------------------|

Chorus

e-------------------------3-3---------------------|
B---------------3---------3-3---3---0-------------|
G---------2-2---2---2-2---0-0---2---0-------------|   (X4)
D---------2-2---0---2-2---0-0---0---0-------------|
A--3p0----0 0-------0 0---2-2---------------------|
E-------------------------3-3---------------------|

Verse

e|----------------------------------------------------|
B|------------------------3---------------------------|
G|---------2------2-------2---------------------------|
D|---------2------2-------0---------------------------|      (x4)
A|---3p0---0-3p0-03p0-------------------------------|
E|----------------------------------------------------|


e|---3------------------------------------------------|
B|---3--(let Ring)-----3------------------------------|
G|---0-----------------2--(let ring)------------------|
D|---0-----------------0------------------------------|
A|---2------------------------------------------------|
E|---3------------------------------------------------|


e|----------------------------------------------------|
B|------------------------3---------------------------|
G|---------2------2-------2---------------------------|
D|---------2------2-------0---------------------------|
A|---3p0---0-3p0-03p0-------------------------------|
E|----------------------------------------------------|

e|---3------------------------------------------------|
B|---3--(let Ring)-----3------------------------------|
G|---0-----------------2--(let ring)------------------|
D|---0-----------------0------------------------------|
A|---2------------------------------------------------|
E|---3------------------------------------------------|


e|----------------------------------------------------|
B|------------------------3---------------------------|
G|------------------------2----2----------------------|
D|---------2------2-------0----2----------------------|
A|---3p0---2-3p0-23p0--------0----------------------|
E|---------0------0-----------------------------------|


Chorus

e-------------------------3-3---------------------|
B---------------3---------3-3---3---0-------------|
G---------2-2---2---2-2---0-0---2---0-------------|   (X4)
D---------2-2---0---2-2---0-0---0---0-------------|
A--3p0----0 0-------0 0---2-2---------------------|
E-------------------------3-3---------------------|




Verse

e|----------------------------------------------------|
B|------------------------3---------------------------|
G|---------2------2-------2---------------------------|
D|---------2------2-------0---------------------------|      (x4)
A|---3p0---0-3p0-03p0-------------------------------|
E|----------------------------------------------------|


e|---3------------------------------------------------|
B|---3--(let Ring)-----3------------------------------|
G|---0-----------------2--(let ring)------------------|
D|---0-----------------0------------------------------|
A|---2------------------------------------------------|
E|---3------------------------------------------------|


e|----------------------------------------------------|
B|------------------------3---------------------------|
G|---------2------2-------2---------------------------|
D|---------2------2-------0---------------------------|
A|---3p0---0-3p0-03p0-------------------------------|
E|----------------------------------------------------|

e|---3------------------------------------------------|
B|---3--(let Ring)-----3------------------------------|
G|---0-----------------2--(let ring)------------------|
D|---0-----------------0------------------------------|
A|---2------------------------------------------------|
E|---3------------------------------------------------|


e|----------------------------------------------------|
B|------------------------3---------------------------|
G|------------------------2----2----------------------|
D|---------2------2-------0----2----------------------|
A|---3p0---2-3p0-23p0--------0----------------------|
E|---------0------0-----------------------------------|


Chorus

e-------------------------3-3---------------------|
B---------------3---------3-3---3---0-------------|
G---------2-2---2---2-2---0-0---2---0-------------|   (X4)
D---------2-2---0---2-2---0-0---0---0-------------|
A--3p0----0 0-------0 0---2-2---------------------|
E-------------------------3-3---------------------|


e|----------------------------------------------------|
B|------------------------3-3-------------------------|
G|--------------2---------2-2--2---0------------------|
D|--------2-2---2---2-2---0-0--2---0------------------|     (X4)
A|--3p0---2-2---0-2-2--------0---0------------------|
E|--------0-0-------0-0-------------------------------|

Solo

e-------------------------3-3---------------------|
B---------------3---------3-3---3---0-------------|
G---------2-2---2---2-2---0-0---2---0-------------|   (X4)
D---------2-2---0---2-2---0-0---0---0-------------|
A--3p0----0 0-------0 0---2-2---------------------|
E-------------------------3-3---------------------|

Brigde

e|--------------------------3-3-----------------------|
B|--------------------------3-3---3--0----------------|
G|---2----------------------0-0---2--0----------------|
D|---2-(let Ring)----------0-0---0--0----------------|
A|---0----------------------2-2-----------------------|
E|--------------------------3-3-----------------------|

Chorus

e-------------------------3-3-------------|--------|
B---------------3---------3-3---3---0-----|--------|
G---------2-2---2---2-2---0-0---2---0-----|---2--*-|   (X12)
D---------2-2---0---2-2---0-0---0---0-----|---2----|
A--3p0----0 0-------0 0---2-2-------------|---0----|
E-------------------------3-3-------------|--------|

	and the last one you can play this very hard

Contact : miguetano@gmail.com

ENJOY IT :D


Airbourne - Runnin' Wild - Whats Eatin' You

Tuning : Standard


Riff 1
x4

|--------------------------------3-----x--x----------------------|
|-----------------------------3--3-----x--x----------------------|
|-2----2-2-2----2-2-2---2-2---2--------x--x----------------------|
|-2----2-2-2----2-2-2---2-2---0--0-----x--x----------------------|
|-0----0-0-0----0-0-0---0-0------2-----x--x----------------------|
|--------------------------------3-----x--x---12\----------------|


Riff 2

|---------------po--po--------------po---po------------------|
|------------------------3-3---------------------------------|
|---------2-2------------2-2--2-2---2-0----------------------|
|-2-------2-2---2-0------0-0--2-2-------2-0------------------|
|-2-------0-0-------2-0-------0-0----------------------------|
|-0----0-----------------------------------------------------|
    p.m^

|--------------po---------------3--3---------------------------|
|-------------------po----------3--3-----3---------------------|
|-------2-2------------------------------2---------------------|
|-2-2---2-2----2-0--------------0--0-----0---------------------|
|-2-2---0-0---------2-0---------2--2---------------------------|
|-0-0---------------------------3--3-------------------12\-----|


Chorus

                                       (1/2)
|--------------po-------2-2---3--------------------------------|
|-------3---------------3-3---3--------------------------------|
|--2-2--2---2-----------2-2---2--------2-----------------------|
|--2-2--0---2--2-0------0-0---0--------2-----------------------|
|--0-0------0--0-----------------------0-----------------------|
|-----------------------------------------2^-------------------|
                                          bend


Riff 1
Riff 2
Chorus
Solo in Progress.....
Riff 1

OUT..


By:ACE

Enjoy

Rock On


~~~~~~~~~~~~~~
Girls in Black
~~~~~~~~~~~~~~


----------------------------------------------------------------------------
Airbourne - Cheap Wine And Cheaper Women
----------------------------------------------------------------------------


tabbed by Ryan Boone

intro
play this x4 but only do the slide on the first time.
e|---------------------------------------------------------------|
B|-----------------------------------------3---------------------|
G|-----------------------------------------2---2-----------------|
D|------------------0--------2----------0--0---2-----------------|
A|-17/1---2---0-0h2----0-0h2----2---0h2----0---0-----------------|
E|--------0---------------------0--------------------------------|


Riff 2
play twice
e|-------3--------------|
B|-----3-3--------------|
G|-----2-0---2----------|
D|-2---0-0---2--2-------|
A|-2---0-----0--2-------|
E|-0------------0-------|


play this 4 more times
e|-----------------------------------------------------------|
B|-------------------------------------3---------------------|
G|-------------------------------------2---2-----------------|
D|--------------0--------2----------0--0---2-----------------|
A|----2---0-0h2----0-0h2----2---0h2----0---0-----------------|
E|----0---------------------0--------------------------------|


play this 2 more times
e|-------3--------------|
B|-----3-3--------------|
G|-----2-0---2----------|
D|-2---0-0---2--2-------|
A|-2---0-----0--2-------|
E|-0------------0-------|


play this 4 more times
e|-----------------------------------------------------------|
B|-------------------------------------3---------------------|
G|-------------------------------------2---2-----------------|
D|--------------0--------2----------0--0---2-----------------|
A|----2---0-0h2----0-0h2----2---0h2----0---0-----------------|
E|----0---------------------0--------------------------------|

then solo(tryin to figure it out still)

2 more times
e|-------3--------------|
B|-----3-3--------------|
G|-----2-0---2----------|
D|-2---0-0---2--2-------|
A|-2---0-----0--2-------|
E|-0------------0-------|


play this until the end of the song
e|-----------------------------------------------------------|
B|-------------------------------------3---------------------|
G|-------------------------------------2---2-----------------|
D|--------------0--------2----------0--0---2-----------------|
A|----2---0-0h2----0-0h2----2---0h2----0---0-----------------|
E|----0---------------------0--------------------------------|


----------------------------------------------------------------------------
                      HEARTBREAKER - AIRBOURNE
----------------------------------------------------------------------------
tabbed by Ryan Boone

intro

Guitar 1

e|---------|
B|---------|
G|-2-2-----|
D|-2-2-----|
A|-0-0-----|
E|---------|

Then Guitar 2 plays

e|--------------3---------------|
B|-x--3--x--3-3-3--3---3--------|
G|-x--2--x--2-2-2--2-2-2--------|
D|-x--0--x--0-0-0--0-2-0--------|
A|-------------------0----------|
E|------------------------------|


None of this is my own work, I simply compiled the existing tabs into one easy album 
Hopefully this will make things easier for people. Enjoy :)
Related for Runnin Wild tab