Song name
# A B C D E F G H I J K L M N O P Q R S T U V W X Y Z

Aiza Seguerra - Pagdating Ng Panahon tab

===============================================================================
                    Pagdating ng Panahon - Aiza Suegerra
--------------------------------------------------------------------------------
Tabbed by: stephanie_7368
Email:     stephanie_7368@yahoo.com

legends:
  x -> mute the string    
  m -> palm mute
  ^ -> down stroke strumming
  p -> pull-off
  h -> hammer-on


*ARRANGED FOR SOLO PLAYING

NOTES:
  MEASURE 1, 1st CHORD:
    - E po ung chord tas idagdag n lng po ung '2nd fret, 3rd string' pra sa
      pull-off gmit ang hinliliit.
  MEASURE 1, 2nd CHORD:
    - maintain po ang pagkakapindot sa '3rd fret, 5th string' hanggang sa
      tapos ng 2nd measure para masustain ung sound.

INTRO

     1                                 2
     022200              032100        
     1 * * * 2 * * * 3 * * * 4 * * *   1 * * * 2 * * * 3 * * * 4 * * *
  e|---------------------------------|---------------------------------|
  B|-0-----------0---------------0---|---------0---1-------3--p1-------|
  G|-----2--p1---------------1-------|-1--h2---------------------------|
  D|---------2-----------2-----------|-------------2-------------------|
  A|-----2---------------------------|-----3---------------------------|
  E|-0-------------------------------|-0-------------------------------|

  (1) (2)
          alam kong

VERSE I

     3                                 4
     024100                            x46600
     1 * * * 2 * * * 3 * * * 4 * * *   1 * * * 2 * * * 3 * * * 4 * * *
  e|---------------------------------|---------------------0-----------|
  B|-0-------------------------------|---------0---0-----------0-------|
  G|-------------1-----------1-------|-------------6-------------------|
  D|---------4-----------4-----------|-------------6---6---------------|
  A|-----2---------------------------|-4-----------4-------------------|
  E|-0-------------------------------|-----------------------------4---|
             hindi   mo  pansin

     5                                 6
     x02200          x24000            024100
     1 * * * 2 * * * 3 * * * 4 * * *   1 * * * 2 * * * 3 * * * 4 * * *
  e|-------------------------0-------|-----------------0---------------|
  B|-------------0---------------0---|---------------------------------|
  G|---------2-----------------------|-------------1-------------------|
  D|-----2---------------4-----------|---------4---------------1---x---|
  A|-0---------------2---------------|-----2---------------------------|
  E|---------------------------------|-0-------------------------------|
     na- ri- to lang     a-  ko                            naghi- hin-
 
     7                                 8
     x46600                            242422          F#7
     1 * * * 2 * * * 3 * * * 4 * * *   1 * * * 2 * * * 3 * * * 4 * * *
  e|---------------------0-----------|---------------------------------|
  B|---------0---0-------------------|---------------------------------|
  G|-------------6-------------------|---------4-------3---------------|
  D|-------------6-------------------|---------2---2-------------------|
  A|-4-----------4-------------------|-----4---------------------------|
  E|-----------------------------0---|-2---------------2---------------|
    tay          na      ma- ha-lin                            u-  ma-

     9                                 10
     x02230          x00230            x22222          x2x442
     1 * * * 2 * * * 3 * * * 4 * * *   1 * * * 2 * * * 3 * * * 4 * * *
  e|---------------------------------|---------------------------------|
  B|-----------------3-------1-------|-----------------4---------------|
  G|---------2-----------2-----------|---------2-------4---------------|
  D|-----2-----------0---------------|-----2---------------------------|
  A|-0-----------0-----------3-------|-2-----------2---2---------------|
  E|---------------------------------|---------------------------------|
     a-  sa  ka-hit 'di man  ngayon                                ma

     11                                12
     F#m7                              x14321
     1 * * * 2 * * * 3 * * * 4 * * *   1 * * * 2 * * * 3 * * * 4 * * *
  e|---------------------------------|---------------------2-----------|
  B|-------------2-----------t-------|-------------2-----------t-------|
  G|---------2-----------2---a-------|---------3---------------a-------|
  D|---------2-------2-------p-------|-----4-------------------p-------|
  A|-----4-----------------------0---|-1---------------1-----------0---|
  E|-2-------------------------------|---------------------------------|
     pa      pansin          mo rin                ma- pa-     pansin

     13                                14
     x24400          xx2x44x           x2221x          x2120x
     1 * * * 2 * * * 3 * * * 4 * * *   1 * * * 2 * * * 3 * * * 4 * * *
  e|-0-----------0-------------------|---------------------------------|
  B|-0-------0-------4---------------|-1---------------0---------------|
  G|-----------------4---------------|---------2-------2---------------|
  D|-----4---------------------------|-----2-----------1---------------|
  A|-2---------------2---------------|-2---------------2---------------|
  E|---------------------------------|---------------------------------|
                             mo rin                        a- lam kong

VERSE II (same as VERSE I, nagdagdag/nagpalit lng ng ilang plucking tas replace
          measure 14 with measure 15)

  'di mo makita, narito lang ako
  hinihintay lagi kita, umaasa kahit 'di man ngayon
  hahanapin mo rin, hahanapin din

     15
     B
     1 * * * 2 * * * 3 * * * 4 * * *
  e|-----------------2---------------|
  B|-4-----------4-------------------|
  G|---------4-----------------------|
  D|-----4---------------------------|
  A|-2-------------------------------|
  E|---------------------------------|
                             pag-da

CHORUS

     16                                17
     0x6x00                            x69876
     1 * * * 2 * * * 3 * * * 4 * * *   1 * * * 2 * * * 3 * * * 4 * * *
  e|-------------0-----------0-------|---------------------------------|
  B|---------0-----------0-----------|-------------7-------7-----------|
  G|---------------------------------|---------8-----------8-----------|
  D|-----6-----------6---------------|-----9---------------9-----------|
  A|---------------------------------|-6---------------6---------------|
  E|-0-------------------------------|---------------------------------|
    ting         ng      pa- na-hon                        ba- ka   i-

     18                                19
     464644          G#                C#m7                    x22442
     1 * * * 2 * * * 3 * * * 4 * * *   1 * * * 2 * * * 3 * * * 4 * * *
  e|---------------------------------|---------------------------------|
  B|---------------------------------|-------------5---5---x---4---x---|
  G|-6-----------6---5---------------|---------4-------4---x---4---x---|
  D|-4-------4-------6-------6-------|-----6-----------6---x-----------|
  A|-6---6-----------6---6-----------|-4---------------4---x---2---x---|
  E|-4---------------4---------------|---------------------------------|
     kaw    rin  at          a-  ko                        ba- ka  ti-

     20                                21
     x02222          x24222            G#m7            x46444
     1 * * * 2 * * * 3 * * * 4 * * *   1 * * * 2 * * * 3 * * * 4 * * *
  e|---------------------------------|---------------------------------|
  B|-2-------------------------------|---------------------------------|
  G|-2-------2---------------2-------|---------4---------------4-------|
  D|-----2---------------4-----------|-----4---------------6-----------|
  A|-0-----------0---2-----------0---|-----------------4---------------|
  E|---------------------------------|-4---------------------------0---|
     bok     ng  pu-     so      ko'y          maging          ti-bok

     22 
     F#m7            x14321 
     1 * * * 2 * * * 3 * * * 4 * * *
  e|---------------------------------|
  B|-------------------------2-------|
  G|---------2---------------3-------|
  D|---------2-----------4-----------|
  A|-----4-------0---1-----------0---|
  E|-2-------------------------------|
             ng pu-      so      mo

  (13)

       (16)              (17)    (18)              (19)
  sana nga'y mangyari 'yon kahit 'di pa lang ngayon
  (20)        (21)
  sana ay mahalin mo rin pagda-

     23
     F#m7            x22422
     1 * * * 2 * * * 3 * * * 4 * * *
  e|-------------------------2---0---|
  B|---------------------------------|
  G|---------2-----------4-----------|
  D|---------2-----------------------|
  A|-----4-------0---2---------------|
  E|-2-------------------------------|
    ting         ng      pa- na-hon

AD LIB (same as INTRO)

VERSE III (same as VERSE II)
  alam kong hindi mo alam narito lang ako
  maghihintay kahit kailan, nangangarap kahit 'di man ngayon
  mamahalin mo rin, mamahalin mo rin

(repeat CHORUS)

BRIDGE

     24                                25
     x02224                            x02222
     1 * * * 2 * * * 3 * * * 4 * * *   1 * * * 2 * * * 3 * * * 4 * * *
  e|-4-----------4-----------4-------|-2-----------2-----------2-------|
  B|-2-------2-----------2-----------|-2-------2-----------2-----------|
  G|-2---2-----------2---------------|-2---2-----------2---------------|
  D|-2-------------------------------|-2-------------------------------|
  A|-0---------------------------0---|-0---------------------------2---|
  E|---------------------------------|---------------------------------|
    'di      pa si-  gu-     ro  bu-       kas

     26                                27
     G#m7                              C#m7
     1 * * * 2 * * * 3 * * * 4 * * *   1 * * * 2 * * * 3 * * * 4 * * *
  e|---------------------------------|---------------------------------|
  B|-4-----------4-----------4-------|-5---------------5---------------|
  G|-4-------4-----------4-----------|-4-------4-----------4-----------|
  D|-4---4-----------4---------------|-6---6-------6-----------6-------|
  A|-6-------------------------------|-4-------------------------------|
  E|-4-------------------------------|-----------------------------0---|
    'di      pa rin          ngayon

     28                                29
     F#m7                              x14321
     1 * * * 2 * * * 3 * * * 4 * * *   1 * * * 2 * * * 3 * * * 4 * * *
  e|---------------------------------|---------------------------------|
  B|-2-----------------------2-------|-2-----------2-----------2-------|
  G|-2-----------2-------2-----------|-3-------3-----------3-----------|
  D|-2-------2-------2---------------|-4---4-----------4---------------|
  A|-4---4-----------------------0---|-1-------------------------------|
  E|-2-------------------------------|---------------------------------|
         ma-lay mo       balang  a-   raw

     30                                31
     x22224                            x22222          x33333
     1 * * * 2 * * * 3 * * * 4 * * *   1 * * * 2 * * * 3 * * * 4 * * *
  e|-4-----------4-----------4-------|-2-------2-------3---------------|
  B|-2-------2-----------2-----------|-2---------------3---------------|
  G|-2---2-----------2---------------|-2---2-----------3---------------|
  D|-2-------------------------------|-2---------------3---------------|
  A|-2-------------------------------|-2---------------3---------------|
  E|---------------------------------|---------------------------------|
         du- mating     din  i- yon                            pagda-

CHORUS (same as CHORUS pero masmataas lng ng isang fret... ikw na po bhla
        dumiskarte. pinalitan po ung dalawang unang chords para masmadali)

  F              C
  ting ng panahon baka ikaw 'rin at ako
  baka tibok ng puso ko'y maging tibok ng puso mo

       F               C
  sana nga'y mangyari 'yon kahit di pa lang ngayon
  sana ay mahalin mo rin pagda-

     32                                33
     Gm7                               x35553
     1 * * * 2 * * * 3 * * * 4 * * *   1 * * * 2 * * * 3 * * * 4 * * *
  e|---------------------------------|-3---------------3---------------|
  B|-3-----------------------3-------|-5-------5-----------------------|
  G|-3-----------3-------3-----------|-5-------------------------------|
  D|-3-------3-------3---------------|-5---5-------5-------------------|
  A|-5---5---------------------------|-3-------------------------------|
  E|-3-------------------------------|---------------------------------|
     ing                               ng                          panahon

ENDING

     34                                35
     F                                 113321
     1 * * * 2 * * * 3 * * * 4 * * *   1 * * * 2 * * * 3 * * * 4 * * *
  e|---------------------------------|---------------------------------|
  B|-1-----------1---------------1---|-2-----------2---------------2---|
  G|---------2---------------2-------|---------3---------------3-------|
  D|-----3---------------3-----------|-----3---------------3-----------|
  A|---------------------------------|---------------------------------|
  E|-1-------------------------------|-1-------------------------------|

  (34) (35)

     36
     F
     1 * * * 2 * * * 3 * * * 4 * * *
  e|-1-------------------------------|
  B|-1-------------------------------|
  G|-2-------------------------------|
  D|-3-------------------------------|
  A|-3-------------------------------|
  E|-1-------------------------------|

===============================================================================
Tap to rate this tab
 
# A B C D E F G H I J K L M N O P Q R S T U V W X Y Z