Guitaretab - guitar tabs
Song name
# A B C D E F G H I J K L M N O P Q R S T U V W X Y Z

Aiza Seguerra - Ill Be There For You tab

===============================================================================
                   I'll Be There For You - Aiza Seguerra
-------------------------------------------------------------------------------
Tabbed by: stephanie_7368
Email:     stephanie_7368@yahoo.com

legends:
  p -> pull-off
  h -> hammer-on
  s -> slide
  + -> harmonics

*HALF-STEP DOWN TUNING (Eb Ab Db Gb Bb eb)


INTRO
         D               C                 Bm7             x13230
  e|-----2---2---2---2---0---0---0---0-------------2---------------0-------|
  B|-----3---2---1---0---1---1-------------3---------------3---------------|
  G|-2---------------------------3---2-----2---------------2---------------|
  D|-----0---------------------------------4---------------3---------------|
  A|---------------------3-----------------2---------------1---------------|
  E|-----------------------------------------------------------------------|

     x02222                      C#m7            x57655          x77777
  e|---------------------2---------------4-------5-------5-------7--------7+|
  B|---------2---3---------------5-------------------------------7------7+--|
  G|-----------------2-------2-------4-------4-------6-------6---7----7+----|
  D|-----2-------4---------------6---------------7---------------7----------|
  A|-0-----------------------------------------------------------7----------|
  E|------------------------------------------------------------------------|


VERSE I
     Asus2                             D7
     1 * * * 2 * * * 3 * * * 4 * * *   1 * * * 2 * * * 3 * * * 4 * * *
  e|---------------------0-----------|---------2-----------------------|
  B|---------0-----------------------|-------------2-------------------|
  G|-------------2-------------------|-----2---------------2-----------|
  D|-----2---------------------------|-0-------------------------------|
  A|-0-------------------------------|---------------------------------|
  E|---------------------------------|---------------------------------|
when you wake up each morniní     and you feel like calliní

     300200                            022200          E
     1 * * * 2 * * * 3 * * * 4 * * *   1 * * * 2 * * * 3 * * * 4 * * *
  e|---------------------------------|---------------------------------|
  B|-0-----------0-------------------|---------------------------------|
  G|---------2---------------2-------|-------------2---1---------------|
  D|-----0---------------0-----------|---------2-----------------------|
  A|---------------------------------|-----2---------------------------|
  E|-3-------------------------------|-0---------------0---------------|
            Iíll be there   for you                              when the

     Asus2                             D7
     1 * * * 2 * * * 3 * * * 4 * * *   1 * * * 2 * * * 3 * * * 4 * * *
  e|---------------------0-----------|---------2-----------------------|
  B|---------0-----------------------|-------------2-------------------|
  G|-------------2---------------2---|-----2---------------2-----------|
  D|-----2---------------------------|-0-------------------------------|
  A|-0-------------------------------|---------------------------------|
  E|---------------------------------|---------------------------------|
   road seems uncer-    tain  and you canít stop the hurtiní

     300230                            022200          E
     1 * * * 2 * * * 3 * * * 4 * * *   1 * * * 2 * * * 3 * * * 4 * * *
  e|---------------------------------|---------------------------------|
  B|-------------3-----------0-------|---------------------------------|
  G|---------2-----------2-------2---|-------------2---1---------------|
  D|-----0-----------0---------------|---------2-----------------------|
  A|---------------------------------|-----2---------------------------|
  E|-3-------------------------------|-0---------------0---------------|
            Iíll be there   for you                           when thereís


CHORUS I
     Dsus2                             x42422      x42222
     1 * * * 2 * * * 3 * * * 4 * * *   1 * * * 2 * * * 3 * * * 4 * * *
  e|---------0---------------0-------|---------------------------------|
  B|-------------3---------------3---|-------------------------2-------|
  G|-----2---------------2-----------|---------4---2-------------------|
  D|-0-------------------------------|-----2---------------2-----------|
  A|---------------------------------|-4-------------------------------|
  E|---------------------------------|---------------------------------|
     no one beside      you     Iíll   be there to guide you

     979777          x86666            F#m7
     1 * * * 2 * * * 3 * * * 4 * * *   1 * * * 2 * * * 3 * * * 4 * * *
  e|-------------------------9---7---|---------------------------------|
  B|-------------7---6---------------|-10--------------0-------2-------|
  G|-----------------6---6-----------|-9---------------1-------2-------|
  D|---------9-------6---------------|-11------11----------------------|
  A|-----7-----------8---------------|-9---9---------------------------|
  E|-9-------------------------------|---------------------------------|
   catch you each time you      fall                   when    the stars

     Bm                                022200          E
     1 * * * 2 * * * 3 * * * 4 * * *   1 * * * 2 * * * 3 * * * 4 * * *
  e|-------------2-------------------|---------------------------------|
  B|-----------------------2h3p2-----|---------------------------------|
  G|---------4-------------------4---|-------------2---1---------------|
  D|-----4---------------4-----------|---------2-----------------------|
  A|-2-------------------------------|-----2---------------------------|
  E|---------------------------------|-0-------------------------------|
           wonít shine   any-   more                      Iíll be there


ADLIB
     x02222                                      x07675
  e|---------------------2-------0-------4---------------5------|
  B|---------2---3-------------------0---0-------7--------------|
  G|-----------------2---2-------1-------------------6----------|
  D|-----2---2---4-------------------------------7--------------|
  A|-0----------------------------------------------------------|
  E|------------------------------------------------------------|

  e|-7------------------------|
  B|-7-------2h3p2--0---------|
  G|-7-----------------2------|
  D|-7--------------------2---|
  A|-7------------------------|
  E|-0------------------------|


VERSE II (same as VERSE I)
  when the world is unkind
  and your dreams they need more time
  Iíll be there for you
  if the rules they keep breakiní
  and the future is fadiní
  Iíll be there for you

CHORUS II (same as CHORUS I)
  the rainbow will end in the palm of your hand
  donít ever let it go
  when the stars wonít shine anymore
  Iíll be there

     A       Asus2
     1 * * * 2 * * * 3 * * * 4 * * *
  e|---------0-------0-------2---0---|
  B|-2-------0-------3---2---0-------|
  G|-2-----------2-------------------|
  D|-2---2---------------------------|
  A|-0-------------------------------|
  E|---------------------------------|


BRIDGE
     G           D                     D   Dsus2   A
     1 * * * 2 * * * 3 * * * 4 * * *   1 * * * 2 * * * 3 * * * 4 * * *
  e|-3-----------2-------------------|-2-----0-0---0-----------0-------|
  B|-3-----------3-----------3-------|-3-------3---2---------------2---|
  G|-4-------4---2-------2-------2---|-2---2-------2---------2-----2---|
  D|-5-----------0-------------------|-0-----------2-------2-----------|
  A|-5---5---------------------------|-------------0-------------------|
  E|-3-------------------------------|---------------------------------|
     who        knows                 where  weíll go

     G               D                 A   Asus2
     1 * * * 2 * * * 3 * * * 4 * * *   1 * * * 2 * * * 3 * * * 4 * * *
  e|-3---------------2-------2-------|-0---------------0---------------|
  B|-3---------------3-----------3---|-2-------0-----------------------|
  G|-4-------4-------2---2-----------|-2-----------2-------------------|
  D|-5---------------0---------------|-2---2---------------------------|
  A|-5---5---------------------------|-0-------------------------------|
  E|-3-----------3-------------------|---------------------------------|
     what will tomorrow         bring                              when

     F#m         C#m                   Dsus2       x4745x
     1 * * * 2 * * * 3 * * * 4 * * *   1 * * * 2 * * * 3 * * * 4 * * *
  e|-5-------------------------------|---------------------------------|
  B|-7-------7-------------------5---|---------5---5-------------------|
  G|-6---6-------------------6-------|-7-----------4-----------4-------|
  D|-4-------------------6-----------|-7---7-------7---------------7---|
  A|-------------4-------------------|-5-----------4-------4-----------|
  E|---------------------------------|---------------------------------|
     we have each o-    ther         just hold on tight           we can
[ Tab from: http://www.guitaretab.com/a/aiza-seguerra/166608.html ]
     300200                            E/D
     1 * * * 2 * * * 3 * * * 4 * * *   1 * * * 2 * * * 3 * * * 4 * * *
  e|---------------------------------|-2-----------2-----------2-------|
  B|-------------0-----------0-------|-3-------3-----------3---3-------|
  G|---------2-----------2-----------|-2---2-----------2-------2---2---|
  D|-----0-----------0---------------|-0-----------------------0-------|
  A|---------------------------------|---------------------------------|
  E|-3-------------------------------|-0-----------------------0-------|
    take to the skies           and    fly

     E
     1 * * * 2 * * * 3 * * * 4 * * *
  e|-0-------------------------------|
  B|-0-------------------------------|
  G|-1--strum------------------------|
  D|-2-------------------------------|
  A|-2-------------------------------|
  E|-0-------------------------------|


ADLIB
     F                                 A#                               
     1 * * * 2 * * * 3 * * * 4 * * *   1 * * * 2 * * * 3 * * * 4 * * *  
  E|-1-----------1-----------1-------|-1-----------1-------------------|
  B|-1-----------1-----------1-------|-3-----------3-----------3-------|
  G|-2-------2-----------2-----------|-3-------3-----------3-----------|
  D|-3---3-----------3---------------|-3---3-----------3---------------|
  A|-3-------------------------------|-1-------------------------------|
  E|-1-------------------------------|---------------------------------|

     D#7                               x33330          C                
     1 * * * 2 * * * 3 * * * 4 * * *   1 * * * 2 * * * 3 * * * 4 * * *  
  e|-3-----------3-----------3-------|-----------------0---------------|
  B|-3-------3-----------3-----------|-3-----------3---1-----------1---|
  G|-3---3-----------3---------------|-3-------3-------0-------0-------|
  D|-1-------------------------------|-3---3-----------2---2-----------|
  A|---------------------------------|-3---------------3---------------|
  E|---------------------------------|---------------------------------|
             Iíll be there for you

     F                                 A#                               
     1 * * * 2 * * * 3 * * * 4 * * *   1 * * * 2 * * * 3 * * * 4 * * *  
  e|-1-----------1-----------1-------|-1-----------1-----------1-------|
  B|-1-----------1-----------1-------|-3-----------3-----------3-------|
  G|-2-----------2-----------2-------|-3-------3-----------3-----------|
  D|-3-------3-----------3-------3---|-3---3-----------3---------------|
  A|-3---3-----------3---------------|-1-------------------------------|
  E|-1-------------------------------|---------------------------------|

     D#7                     x33330    C                       x476m5
     1 * * * 2 * * * 3 * * * 4 * * *   1 * * * 2 * * * 3 * * * 4 * * *  
  e|-3-----------3-------------------|-0-----------0-----------5-------|
  B|-3-------3---------------3-------|-----------------1-------m-------|
  G|-3---3-----------3-------3-------|-----0---3---------------6-------|
  D|-1-----------------------3-------|-------------------------7-------|
  A|-------------------------3-------|-3-----------------------4-------|
  E|---------------------------------|---------------------------------|
             Iíll be there for you


ADLIB (lead)
  e|----------------------------8s10-8---------------------------------|
  B|-10-10-10-10------8-8s11-11----------8s7-6h8---6-7s8---------------|
  G|---------------10----------------------------7---------------------|
  D|-------------------------------------------------------------------|
  A|-------------------------------------------------------------------|
  E|-------------------------------------------------------------------|

       e|------------------------------------|
   /   B|--------------------8-8s10-10-10-10-|
  |    G|-------------7-9-10-----------------|
  |    D|------7-8-10------------------------|
  |    A|-8-10-------------------------------|
  |    E|------------------------------------|
  OR
  |    e|-------------1-3-3s5-5-5-5-|
  |    B|---------1-3---------------|
  |    G|---0-2-3-------------------|
  |    D|-3-------------------------|
   \   A|---------------------------|
       E|---------------------------|

  e|-----------------10-10s13---10---------------|
  B|-------8-8s10-10-----------------13-11-------|
  G|----10---------------------------------12----|
  D|-10------------------------------------------|
  A|---------------------------------------------|
  E|---------------------------------------------|


CHORUS II
     D                                 x4222x
     1 * * * 2 * * * 3 * * * 4 * * *   1 * * * 2 * * * 3 * * * 4 * * *
  e|-2-----------2-------------------|---------------------------------|
  B|-3---3---3---3---------------3---|-2-----------2---------------2---|
  G|-2---2---2---2---2-------2-------|-2-------2---------------2-------|
  D|-0---0---0---0-------0-----------|-2---2---------------2-----------|
  A|---------------------------------|-4-------------------------------|
  E|---------------------------------|---------------------------------|
the rainbow will end         in the   palm of your hand

     979777          x86666            F#m7
     1 * * * 2 * * * 3 * * * 4 * * *   1 * * * 2 * * * 3 * * * 4 * * *
  e|---------------------------------|---------------------------------|
  B|-------------7---6---------------|-10----------------------10------|
  G|-----------------6-------6-------|-9-----------9-----------9-------|
  D|---------9-------6---6-----------|-11------11--------------11------|
  A|-----7-----------8---------------|-9---9-------------------9-------|
  E|-9-------------------------------|---------------------------------|
     donít ever let      it      go                    when   the stars

     Bm7                               022200          E
     1 * * * 2 * * * 3 * * * 4 * * *   1 * * * 2 * * * 3 * * * 4 * * *
  e|-----------------------------2---|-------------------------0-------|
  B|-3-----------3-----------3-------|---------------------------------|
  G|-2-------2-----------2-----------|-------------2---1---------------|
  D|-4---4-----------4---------------|---------2-----------------------|
  A|-2-------------------------------|-----2---------------2-----------|
  E|---------------------------------|-0---------------0---------------|
           wonít shine   a-  nymore                        Iíll be there


     A           x02222                A
     1 * * * 2 * * * 3 * * * 4 * * *   1 * * * 2 * * * 3 * * * 4 * * *
  e|-0-------0---------------2-------|-0-------------------------------|
  B|-2-----------2---3---------------|-2-------------------------------|
  G|-2---------------2---2-----------|-2-------------------------------|
  D|-2---2-----------4---------------|-2-------------------------------|
  A|-0-------------------------------|-0-------------------------------|
  E|---------------------------------|---------------------------------|

         D                     x4xx20
  e|-2---2---2---2-----9s5-----------0---0---0---0-----5---7-----|
  B|-3---2---1---0-------------------2---2---1---0-------------5-|
  G|-------------------------------------------------------------|
  D|-0-------------------------------------------4---------------|
  A|---------------------------------4---------------------------|
  E|-------------------------------------------------------------|
the rainbow will end         in the palm of your hand

     979777          x86666            F#m7
     1 * * * 2 * * * 3 * * * 4 * * *   1 * 
  e|-----------------------------9---|-----|
  B|-------------7---6---------------|-10--|
  G|-----------------6-------6-------|-9---|
  D|---------9-------6---6-----------|-11--|
  A|-----7-----------8---------------|-9---|
  E|-9-------------------------------|-----|
     donít   ever        let      it    go

         F#m7
     F#7sus4   xx5757    xx991010
  e|-----------7---5-----10--9-----14--------------|
  B|-----------5---------10--------14--------0---2-|
  G|-4---2-----7---------9---------14--------------|
  D|-2---------5---------9---------14--------3---2-|
  A|-4-----------------------------14--------------|
  E|-2---------------------------------------------|
                                            when the
     Bm                                022200          E
     1 * * * 2 * * * 3 * * * 4 * * *   1 * * * 2 * * * 3 * * * 4 * * *
  e|-------------------------2-------|---------------------------------|
  B|-3-----------2---3---------------|-----------------0---------------|
  G|-4-------4-----------------------|-------------2---1---------------|
  D|-4---4---------------4-----------|---------2-------2---------------|
  A|-2-------------------------------|-----2-----------2---------------|
  E|---------------------------------|-0---------------0---------------|
 stars          wonít shine          anymore                     Iíll be

OUTRO
         D               C                 Bm7             x13230    A
  e|-2---2---2---2---0---0---0---0-----------------------------------0--|
  B|-3---2---1---0---1---1-------------3---------------3-------------2--|
  G|-------------------------3---2-----2---------------2-------------2--|
  D|-0---------------------------------4---------------3-------------2--|
  A|-----------------3-----------------2---------------1-------------0--|
  E|--------------------------------------------------------------------|
          there                                               Iíll be there

==============================================================================
Related for Ill Be There For You tab