Song name
# A B C D E F G H I J K L M N O P Q R S T U V W X Y Z

Akala - Stand Up tab

-------------------------------------------------------------------------------
			     STAND UP - Akala
-------------------------------------------------------------------------------
Tabbed by: jetfuel495
Email:

Tuning: Standard (E)

FIRST GUITAR:

Main Riff (Played three times):

e|---------------------------------|
B|---------------------------------|
G|---------------------------------|
D|---------------------------------|
A|-----4-4-5-4-2---2---------------|
E|-2-2-----------5---5-4-0-2-0-2-0-|

PM . .           .   . . . . . . .


Fourth time play this:

e|---------------------------------|
B|---------------------------------|
G|---------------------------------|
D|---------------------------------|
A|-----4-4-5-4-2---2-------2-------|
E|-2-2-----------5---5-4-2---5-4-0-|
   . .           .   . . .   . . .
SECOND GUITAR:

(Played three times, corresponding to
the main riff being played three times)

e|---------------------------------|
B|---------------------------------|
G|---------------------------------|
D|-4-4-----------------------------|
A|-4-4-----------------------------|
E|-2-2-----------------------------|

On fourth time:

e|---------------------------------|
B|---------------------------------|
G|-2---------------4---------------|
D|-2---------------4---------------|
A|-0---------------2---------------|
E|---------------------------------|

That's basically it, for the whole song.
Tap to rate this tab
# A B C D E F G H I J K L M N O P Q R S T U V W X Y Z