Akb48 - Aitakatta tab

This is my interpretation, which sounds right. I've played it along to the music a 
few thousand times and there seems to be no problem. 
Any queries: http://www.youtube.com/watch?v=3JQcgDrdSbY

Tabbed by: Tomb_Skull_
Email: henry.thomas95@btinternet.com

Tuning: E Standard

Intro 
e|------------------------------------------|
B|------------------------------------------|
G|------------------------------------------|
D|-8/9-9--8/9-9--8/9-9--8/9-9--8/9-9--------|
A|-8/9-9--8/9-9--8/9-9--8/9-9--8/9-9--------|
E|-6/7-7--6/7-7--6/7-7--6/7-7--6/7-7--------|

Chorus (figure out a strumming pattern that works for you)
e|--------------------------------------|
B|--------------------------------------|
G|-4~-----------------------------------|
D|-4~-------6~--------2~--------4~------|    x2
A|-2~-------6~--------2~--------4~------|
E|----------4~--------0~--------2~------|
  Aitakatta Aitakatta Aitakatta Yes!

Pre Verse 
e|-------------------------------------|
B|-------------------------------------|
G|--------------9-8-6------------------|
D|---------6-6--9-8-6-9----------------|    x2
A|---------6-6--7-6-4-9----------------|
E|---------4-4--------7----------------|
  Kimi  Ni~ 

Verse
e|------------------------------------------------------------------------|
B|------------------------------------------------------------------------|
G|----------9~-------11~--13~------9~-----11~-----------------------------|
D|-9~-------9~-------11~--13~------9~-----11~---------8/9-8/9-9-8/9-8/9-9-|
A|-9~-------7~--------9~--11~------7~------9~---------8/9-8/9-9-8/9-8/9-9-|
E|-7~-------------------------------------------------6/7-6/7-7-6/7-6/7-7-|
   Jidensha Zenryoku De~  Pedaru   Koginagara Saka Wo Noboru~ 
   Kazeni Fukurande  Ru~  Shatsumo Imawa Modokashii

Verse (2)
e|---------------------------------------------|
B|---------------------------------------------|
G|-9-9-9-9-9-9-9-------------------------------|
D|-9-9-9-9-9-9-9----8/9-8/9-9-8/9-8/9-9--------|
A|-7-7-7-7-7-7-7----8/9-8/9-9-8/9-8/9-9--------|
E|------------------6/7-6/7-7-6/7-6/7-7--------|
  Yatto Kidzuita                      
  Hontou No Kimochi

Verse (3)
e|------------------------------------------------------------------------|
B|------------------------------------------------------------------------|
G|-9-9-9-9-9--8-8-8-8---13--13-11-9---9-9-9-9-9-9---11---12-----11----12--|
D|-9-9-9-9-9--8-8-8-8---13--13-11-9---9-9-9-9-9-9---11---12-----11----12--|
A|-7-7-7-7-7--6-6-6-6---11--11-9--7---7-7-7-7-7-7----9---10------9----10--|
E|------------------------------------------------------------------------|
  Shoujiki Ni Yuku n Da     Tatta     Hitotsu Kono Michi Wo Hashire!

Pre Chorus
e|--------------------------------------------------------------|
B|--------------------------------------------------------------|
G|-8~-------9~-----11~---------8~-------9~---11~-------16~------|
D|-8~-------9~-----11~-----9~--8~-------9~---11~-------16~------|
A|-6~-------7~------9~-----9~--6~-------7~----9~-------14~------|
E|-------------------------7~-----------------------------------|
   Suki naraba Suki da to iou  Gomakasazu Sunao ni narou!
   Suki naraba Suki da to iou  Mune no uchi Sarakedasou yo!

Chorus 
e|--------------------------------------|
B|--------------------------------------|
G|-4~-----------------------------------|
D|-4~-------6~--------2~--------4~------|    x2
A|-2~-------6~--------2~--------4~------|
E|----------4~--------0~--------2~------|
  aitakatta aitakatta aitakatta Yes!

Pre Verse 
e|-------------------------------------|
B|-------------------------------------|
G|--------------9-8-6------------------|
D|---------6-6--9-8-6-9----------------|    x2
A|---------6-6--7-6-4-9----------------|
E|---------4-4--------7----------------|
  Kimi  ni~ 

Verse
e|------------------------------------------------------------------------|
B|------------------------------------------------------------------------|
G|----------9~-------11~--13~------9~-----11~-----------------------------|
D|-9~-------9~-------11~--13~------9~-----11~---------8/9-8/9-9-8/9-8/9-9-|
A|-9~-------7~--------9~--11~------7~------9~---------8/9-8/9-9-8/9-8/9-9-|
E|-7~-------------------------------------------------6/7-6/7-7-6/7-6/7-7-|
   Don don  afureda  su   ase mo   Nuguwazuni sugao   no mama
   Komorebi re no tonneru natsu he Tsudzuku chikamichi sa

Verse (2)
e|---------------------------------------------|
B|---------------------------------------------|
G|-9-9-9-9-9-9-9-------------------------------|
D|-9-9-9-9-9-9-9----8/9-8/9-9-8/9-8/9-9--------|
A|-7-7-7-7-7-7-7----8/9-8/9-9-8/9-8/9-9--------|
E|------------------6/7-6/7-7-6/7-6/7-7--------|
Sonna  jouzu  ni  
Hanasenakutemo

Verse (3)
e|------------------------------------------------------------------------|
B|------------------------------------------------------------------------|
G|-9-9-9-9-9--8-8-8-8---13--13-11-9---9-9-9-9-9-9---11---12-----11----12--|
D|-9-9-9-9-9--8-8-8-8---13--13-11-9---9-9-9-9-9-9---11---12-----11----12--|
A|-7-7-7-7-7--6-6-6-6---11--11-9--7---7-7-7-7-7-7----9---10------9----10--|
E|------------------------------------------------------------------------|
   Sutore to  de ii         Jibun     rashii   ikikata   de     Hashire!

Pre Chorus
e|---------------------------------------------------------------|
B|---------------------------------------------------------------|
G|-8~-------9~-----11~----------8~-------9~---11~-------16~------|
D|-8~-------9~-----11~-----9~---8~-------9~---11~-------16~------|
A|-6~-------7~------9~-----9~---6~-------7~----9~-------14~------|
E|-------------------------7~------------------------------------|
   Dareyori mo  Taisetsu dakara Furaretemo Koukai   shinai
   Dare yorimo  Taisetsu dakara Kono kimochi Tsutaetakatta
   Suki naraba Suki da to iou   Gomakasazu Sunao ni narou
   Suki naraba Suki da to iou   Mune no uchi Sarakedasou yo
   La la la la la la la la la la la la la la la la la la la 
   La la la la la la la la la la la la la la la la la la la 
   La la la la la la la la la la la la la la la la la la la  
   La la la la la la la la la la la la la la la la la la la 

Chorus 
e|--------------------------------------|
B|--------------------------------------|
G|-4~-----------------------------------|
D|-4~-------6~--------2~--------4~------|    x2
A|-2~-------6~--------2~--------4~------|
E|----------4~--------0~--------2~------|
  aitakatta aitakatta aitakatta Yes!

Pre Verse (different)
e|-------------------------------------|
B|-------------------------------------|
G|--------------9-8-6------------------|
D|---------9-9--9-8-6-9----------------|    x2
A|---------9-9--7-6-4-9----------------|
E|---------7-7--------7----------------|
  Kimi  ni~ 

Outro
e|--------------|
B|--------------|
G|--------------|
D|----------9---|
A|----------9---|
E|----------7---|
  Aitakatta!

Order:
Intro
Chorus 1
Pre Verse 1
Verse (1,2,3) 1
Pre Chorus 1
Chorus 2
Pre Verse 2
Verse (1,2,3) 2
Pre Chorus 2
Chorus 3
Pre Verse 3
Outro

| /  slide up
| \  slide down
| h  hammer-on
| p  pull-off
| ~  vibrato
| +  harmonic
| x  Mute note

http://www.akb48.co.jp/english/index.html
Tap to rate this tab
 
# A B C D E F G H I J K L M N O P Q R S T U V W X Y Z