Song name
# A B C D E F G H I J K L M N O P Q R S T U V W X Y Z

Akeboshi - Naruto Wind tab

This Is My First Tab. I converted it from piano notes.




e|-3-1-3-6---------------------|
B|-----------------------------|
G|-----------------------------|
D|-----------------------------|
A|-----------------------------|
E|-----------------------------|

e|-------1---------------------|
B|-3-1-3-----------------------|
G|-----------------------------|
D|-----------------------------|
A|-----------------------------|
E|-----------------------------|

Play That 5 Times Then

e|-3-1-3-6---------------------|
B|-----------------------------|
G|-----------------------------|
D|-----------------------------|
A|-----------------------------|
E|-----------------------------|

e|-----------------------------|
B|-3-3-1-3---------------------|
G|-----------------------------|
D|-----------------------------|
A|-----------------------------|
E|-----------------------------|
Tap to rate this tab
# A B C D E F G H I J K L M N O P Q R S T U V W X Y Z