Song name
# A B C D E F G H I J K L M N O P Q R S T U V W X Y Z

Akimbo - Delilah tab

Delilah
Akimbo
Elephantine

by: theorganicboy
hxchaos@hotmail.com

Riff A:
e|----------------------------------------------------------|
b|-------------------------------------0--------------------|
g|---------7-9--------------9-7--------0-----------\\\\\\---|
d|---5-----7-9----7-5-5-----9-7----7-5-2-----------\\\\\\---|
a|---5-22--5-7--2-7-5-5-22--7-5--2-7-5-2-----------\\\\\\---|
e|---3-00-------0-5-3-3-00-------0-5-3-0--------------------|

e|--------------------------------------------------0-------|
b|-------------------------------------0--------------0-----|
g|---------7-9--------------9-7--------0----------------0---|
d|---5-----7-9----7-5-5-----9-7----7-5-2--------------------|
a|---5-22--5-7--2-7-5-5-22--7-5--2-7-5-2--------------------|
e|---3-00-------0-5-3-3-00-------0-5-3-0--------------------|

e|------------------------------------------------------0---|
b|-------------------------------------0--------------0-----|
g|---------7-9--------------9-7--------0------------0-------|
d|---5-----7-9----7-5-5-----9-7----7-5-2--------------------|
a|---5-22--5-7--2-7-5-5-22--7-5--2-7-5-2--------------------|
e|---3-00-------0-5-3-3-00-------0-5-3-0--------------------|

e|----------------------------------------------------------|
b|-------------------------------------0--------------------|
g|---------7-9--------------9-7--------0-----------\\\\\\---|
d|---5-----7-9----7-5-5-----9-7----7-5-2-----------\\\\\\---|
a|---5-22--5-7--2-7-5-5-22--7-5--2-7-5-2-----------\\\\\\---|
e|---3-00-------0-5-3-3-00-------0-5-3-0--------------------|

e|---------------------------------------|
b|---------------------------------------|
g|---------7-9--------------9-7----------|
d|---5-----7-9----7-5-5-----9-7----7-5---|       (x2)
a|---5-22--5-7--2-7-5-5-22--7-5--2-7-5---|
e|---3-00-------0-5-3-3-00-------0-5-3---|

e|---------------------------------------------|
b|---------------------------------------------|
g|-------------------7-7-----------------------|
d|---5p0-6p0-5p0-5h6-----5p0-6p0-5p0-5h6-3-3---|    (x2)
a|---------------------------------------------|
e|---------------------------------------------|

e|---------------------------------------|
b|---------------------------------------|
g|---------7-9--------------9-7----------|
d|---5-----7-9----7-5-5-----9-7----7-5---|
a|---5-22--5-7--2-7-5-5-22--7-5--2-7-5---|
e|---3-00-------0-5-3-3-00-------0-5-3---|

e|---------------------------------------------|
b|---------------------------------------------|
g|---------------------------------------------|
d|-------------------7-7-----------------------|
a|---5p0-6p0-5p0-5h6-----5p0-6p0-5p0-5h6-3-3---|
e|---------------------------------------------|

e|---------------------------------------|
b|---------------------------------------|
g|---------7-9--------------9-7----------|
d|---5-----7-9----7-5-5-----9-7----7-5---|
a|---5-22--5-7--2-7-5-5-22--7-5--2-7-5---|
e|---3-00-------0-5-3-3-00-------0-5-3---|

e|-------------------5-5-----------------------|
b|---3p0-4p0-3p0-3h4-----3p0-4p0-3p0-3h4-------|
g|---------------------------------------5-5---|
d|---------------------------------------------|   (x2)
a|---------------------------------------------|
e|---------------------------------------------|

Riff B:
e|-----------------------------------------------|
b|-----------------------------------------------|
g|-----------------------------------------------|
d|-----------------------------------------------|  (x3)
a|-------5h7-------5---5h7-----5h7---------5h7---|
e|---3-0-----0-3-0---0-----3-0-----0-3h5-0-------|

e|-----------------------------------------------|
b|-----------------------------------------------|
g|-----------------------------------------------|
d|-------7/9-------7---7/9-----7/9---------7/9---|   (x4)
a|---5-2-5/7---5-2-5---5/7-5-2-5/7---5/7---5/7---|
e|---3-0-----0-3-0---0-----3-0-----0-3/5-0-------|


Riff C:
e|---000000000000000000000000000000000---|
b|---555555555444444445555555787788787---|
g|---------------------------------------|
d|---------------------------------------|    (x4)
a|---------------------------------------|
e|---------------------------------------|

Riff B:
e|-----------------------------------------------|
b|-----------------------------------------------|
g|-----------------------------------------------|
d|-------7/9-------7---7/9-----7/9---------7/9---|   (x2)
a|---5-2-5/7---5-2-5---5/7-5-2-5/7---5/7---5/7---|
e|---3-0-----0-3-0---0-----3-0-----0-3/5-0-------|

Riff D:
e|---------------------------------------------------------------------------|
b----------------------------------------------------------------------------|
g|---------------------------------------------------------------------------|
d|----------------------5/7---------------11\9----------------9\7------------|
a|-5--7--5--7--5-7---5--7/9-5--7--5-7---5--9\7-5--7--5-7---5--7\5-5--7--5-7--|
e|-300500300500305---300---0300500305---300---0300500305---300---0300500305--|
Tap to rate this tab
 
# A B C D E F G H I J K L M N O P Q R S T U V W X Y Z