Song name
# A B C D E F G H I J K L M N O P Q R S T U V W X Y Z

Ako - Starlight tab

www.ako-music.com, they are from Bristol England and they rock.
Here is a song off of their latest EP

-----------------------------------------------------------------------------
			     Starlight - AKO
-----------------------------------------------------------------------------
Tabbed by: Davey
Email: mrstabbystabspeople@hotmail.com

Tuning: Drop C (CGCFAD)

Intro

D|--------------------------------
A|-/6p5-5-5h6p5-5-5-3-3-3-3/5\1---
F|--------------------------------
C|--------------------------------
G|--------------------------------
C|--------------------------------

(comes in after intro plays twice)
|-------------------------------------------
|-------------------------------------------
|-------------------------------------------
|---------------------------------5-5-5-5---
|-0-0-0-0-0---0-0-0-0--3-3-3-3-3--3-3-3-3---
|-0-0-0-0-0---0-0-0-0--3-3-3-3-3------------
palm mute most notes

Intro and this harmonic play in the verse
|-----------------------------------
|-/10-8-8-8h10p8-8-8-6-6-6-6/8\5----
|-----------------------------------
|-----------------------------------
|-----------------------------------
|-----------------------------------

Chorus
|---------------0-----------------------------------------------------------
|---------------0-----------------------------------------------------------
|-------/7-7-7--0---5-5-5-5-5-5-5-5-3-3-3-3-3-3-3-3-------------------------
|---------------0-----------------------------------------------------------
|-0-0-0-/5-5-5--0---3-3-3-3-3-3-3-3-5-5-5-5-5-5-5-5-------------------------
|-0-0-0---------0-----------------------------------------------------------

Don't know the rest but they's the best bits

| /  slide up
| \  slide down
| h  hammer-on
| p  pull-off
| ~  vibrato
| +  harmonic
| x  Mute note
=============================================================================
Tap to rate this tab
# A B C D E F G H I J K L M N O P Q R S T U V W X Y Z