Song name
# A B C D E F G H I J K L M N O P Q R S T U V W X Y Z

Alabama Shakes - Hang Loose chords

Highlighted       Show chord diagrams
This is the song "Hang Loose" by Alabama Shakes
from the album 'Boys & Girls' - http://www.alabamashakes.com/

Song tabbed by Johnny Cosmic
http://johnnycosmic.bandcamp.com/

[Intro gtr lick] - there are slight variations all over but this is the basic model for 
the riff.

e|---------------------------------------|
B|---------------------------------------|
G|---------------------------------------|
D|--------9--------9---------------------|
A|--/9\11-----9\11-----------7-------7---|
E|----------------------11///----7\9-----|

      E
Don't worry, sweet baby, Don't you ever worry bout a thing
Put them worries on the shelf n learn to love yourself
Don't be your own worst enemy

     F#m7   F#m        F#m7   F#m
Hang Loose,       Hang loose,
        E
Let the ocean worry bout bein' blue
     F#m7   F#m        F#m7   F#m
Hang Loose,       Hang Loose,
        E
Go with the tide and I'ma take care of you

(intro gtr lick)

       E
Come with me sweet darlin', I got a seat, ya ticket for that plane
We gonna fly to Waikiki, it'd just be you and me, and we'll let the
sun melt our cares away


     F#m7   F#m        F#m7   F#m
Hang Loose,       Hang loose,
        E
Let the ocean worry bout bein' blue
     F#m7   F#m        F#m7   F#m
Hang Loose,       Hang Loose,
        E
Go with the tide and I'ma take care of you


F#m F#m7  F#m     G#m7        E
 Alright,    we're gonna be alright 2xs

     E
Hang loose 4xs


CHORDS

   F#m   F#m7   G#m7   E

e|--9-----9------11-------------|
B|--10----10-----12----9--------|
G|--11----9------11----9--------|
D|--11----11-----13----9--------|
A|--9-----9------11----7--------|
E|---------------------0--------|
Tap to rate this tab
# A B C D E F G H I J K L M N O P Q R S T U V W X Y Z