Song name
# A B C D E F G H I J K L M N O P Q R S T U V W X Y Z

Alabama Shakes - Hold On tab

------------------------------------------------------------------------------
                            HOLD ON - ALABAMA SHAKES
------------------------------------------------------------------------------

This song is pretty basic and enjoyable to play. Guitar 1 is rhythm, Guitar 2 is bass 
and Guitar 3 is lead. Done by ear, I'm 99% sure its correct. Standard tuning throughout. 
No capo. Enjoy :)

INTRO:
Guitar 1:
     D        U     D D        U     D D        U     D  D U D U D
e|---0--------0---|---0--------0---|---0--------0---|----1-1-1-1-1---|
B|---1--------1---|---1--------1---|---1--------1---|----1-1-1-1-1---|
G|---x--------x---|---x--------x---|---x--------x---|----2-2-2-2-2---|
D|---2--------2---|-2-2--------2---|-2-2--------2---|-2--3-3-3-3-3---|
A|---3--------3---|-3-3--------3---|-3-3--------3---|-3--3-3-3-3-3---|
E|---3--------3---|-3-3--------3---|-3-3--------3---|-3--------------|

Guitar 2:

e|----------------|----------------|----------------|--------------------------|
B|----------------|----------------|----------------|--------------------------|
G|----------------|----------------|----------------|--------------------------|
D|----------------|----------------|----------------|---------------------10-10|
A|---3--------3---|-3-3--------3---|-3-3--------3---|----10-10-10h12p10--------|
E|----------------|----------------|----------------|--------------------------|

Guitar 3: (Comes in on 3rd time)

e|----------------------------------|
B|----------------------------------|
G|----------------------------------|
D|----------------------------------|
A|-7-------5--------------5--5-5----|
E|-----3-5----3-5-3---3-5--------3--|

VERSE:
Guitar 1:
     D        U     D D        U     D D        U     D  D U D U D
e|---0--------0---|---0--------0---|---0--------0---|----1-1-1-1-1---|
B|---1--------1---|---1--------1---|---1--------1---|----1-1-1-1-1---|
G|---x--------x---|---x--------x---|---x--------x---|----2-2-2-2-2---|
D|---2--------2---|-2-2--------2---|-2-2--------2---|-2--3-3-3-3-3---|
A|---3--------3---|-3-3--------3---|-3-3--------3---|-3--3-3-3-3-3---|
E|---3--------3---|-3-3--------3---|-3-3--------3---|-3--------------|

Guitar 2:

e|----------------|----------------|----------------|--------------------------|
B|----------------|----------------|----------------|--------------------------|
G|----------------|----------------|----------------|--------------------------|
D|----------------|----------------|----------------|---------------------10-10|
A|---3--------3---|-3-3--------3---|-3-3--------3---|----10-10-10h12p10--------|
E|----------------|----------------|----------------|--------------------------|

Guitar 3:

e|----------------------------------|
B|----------------------------------|
G|----------------------------------|
D|----------------------------------|
A|-7-------5--------------5--5-5----|
E|-----3-5----3-5-3---3-5--------3--|

CHORUS:
Guitar 1:
     D        U     D D        U     D D        U     D  D U D U D
e|---0--------0---|---0--------0---|---0--------0---|----1-1-1-1-1---|
B|---1--------1---|---1--------1---|---1--------1---|----1-1-1-1-1---|
G|---x--------x---|---x--------x---|---x--------x---|----2-2-2-2-2---|
D|---2--------2---|-2-2--------2---|-2-2--------2---|-2--3-3-3-3-3---|
A|---3--------3---|-3-3--------3---|-3-3--------3---|-3--3-3-3-3-3---|
E|---3--------3---|-3-3--------3---|-3-3--------3---|-3--------------|

Guitar 2:

e|----------------|----------------|----------------|--------------------------|
B|----------------|----------------|----------------|--------------------------|
G|----------------|----------------|----------------|--------------------------|
D|----------------|----------------|----------------|---------------------10-10|
A|---3--------3---|-3-3--------3---|-3-3--------3---|----10-10-10h12p10--------|
E|----------------|----------------|----------------|--------------------------|

Guitar 3:

e|--------------------------------|
B|--------------------------------|
G|--------------------------------|
D|--------10---------10-----------|
A|-10h12------10h12------10h12----|
E|--------------------------------|

e|--------------------------------|
B|--------------------------------|
G|--------------------------------|
D|--------10---------10-----------|
A|-10h12------10h12------10h12----|
E|--------------------------------|

e|--------------------------------|
B|--------------------------------|
G|-----------------------10-10/12-|
D|--------10---------10--12-12/14-|
A|-10h12------10h12---------------|
E|--------------------------------|

e|--------------------------------|
B|--------------------------------|
G|--------------------------------|
D|--------10---------10-----------|
A|-10h12------10h12------10h12----|
E|--------------------------------|

e|--------------------------------|
B|--------------------------------|
G|--------------------------------|
D|--------10---------10-----------|
A|-10h12------10h12------10h12----|
E|--------------------------------|

e|--------------------------------|
B|--------------------------------|
G|-----------------------12/10/9--|
D|--------10---------10--14/12/10-|
A|-10h12------10h12---------------|
E|--------------------------------|

e|--------------------------------|
B|--------------------------------|
G|--------------------------------|
D|--------10---------10-----------|
A|-10h12------10h12------10h12----|
E|--------------------------------|

e|--------------------------------|
B|--------------------------------|
G|--------------------------------|
D|--------10---------10-----------|
A|-10h12------10h12------10h12----|
E|--------------------------------|

e|--------------------------------|
B|--------------------------------|
G|-----------------------10-10/12-|
D|--------10---------10--12-12/14-|
A|-10h12------10h12---------------|
E|--------------------------------|

e|---------------------------------------|
B|------------------------13-13-13-13-12-|
G|----12------------------14-14-14-14-12-|
D|-14----14/12-12-12/14------------------|
A|---------------------------------------|
E|---------------------------------------|

BRIDGE:

Guitar 1:
     D        U     D D        U     D D        U     D  D U D U D
e|---0--------0---|---0--------0---|---0--------0---|----1-1-1-1-1---|
B|---1--------1---|---1--------1---|---1--------1---|----1-1-1-1-1---|
G|---x--------x---|---x--------x---|---x--------x---|----2-2-2-2-2---|
D|---2--------2---|-2-2--------2---|-2-2--------2---|-2--3-3-3-3-3---|
A|---3--------3---|-3-3--------3---|-3-3--------3---|-3--3-3-3-3-3---|
E|---3--------3---|-3-3--------3---|-3-3--------3---|-3--------------|

Guitar 2:

e|----------------|----------------|----------------|--------------------------|
B|----------------|----------------|----------------|--------------------------|
G|----------------|----------------|----------------|--------------------------|
D|----------------|----------------|----------------|---------------------10-10|
A|---3--------3---|-3-3--------3---|-3-3--------3---|----10-10-10h12p10--------|
E|----------------|----------------|----------------|--------------------------|

Guitar 3:
     D        U     D  D       U     D  D       U     D  D U D U D
e|----------------|----------------|----------------|----------------|
B|----------------|----------------|----------------|----------------|
G|----------------|----------------|----------------|----------------|
D|---10-------10--|-10-10------10--|-10-10------10--|-10-3-3-3-3-3---| x3
A|---10-------10 -|-10-10------10--|-10-10------10--|-10-3-3-3-3-3---|
E|---8--------8---|-8--8-------8---|-8--8-------8---|-8--1-1-1-1-1---|

e|---------------------------------------|
B|------------------------13-13-13-13-12-|
G|----12------------------14-14-14-14-12-|
D|-14----14/12-12-12/14------------------|
A|---------------------------------------|
E|---------------------------------------|

OUTRO:
Guitar 1:
     D        U     D D        U     D D        U     D  D U D U D
e|---0--------0---|---0--------0---|---0--------0---|----1-1-1-1-1---|
B|---1--------1---|---1--------1---|---1--------1---|----1-1-1-1-1---|
G|---x--------x---|---x--------x---|---x--------x---|----2-2-2-2-2---|
D|---2--------2---|-2-2--------2---|-2-2--------2---|-2--3-3-3-3-3---|
A|---3--------3---|-3-3--------3---|-3-3--------3---|-3--3-3-3-3-3---|
E|---3--------3---|-3-3--------3---|-3-3--------3---|-3--------------|

Guitar 2:

e|----------------|----------------|----------------|--------------------------|
B|----------------|----------------|----------------|--------------------------|
G|----------------|----------------|----------------|--------------------------|
D|----------------|----------------|----------------|---------------------10-10|
A|---3--------3---|-3-3--------3---|-3-3--------3---|----10-10-10h12p10--------|
E|----------------|----------------|----------------|--------------------------|

Guitar 3: (Comes in on 3rd time)

e|----------------------------------|
B|----------------------------------|
G|----------------------------------|
D|----------------------------------|
A|-7-------5--------------5--5-5----|
E|-----3-5----3-5-3---3-5--------3--|

e|----------------------------------|
B|----------------------------------|
G|-------------10/12----------------|
D|-----------5-12/14----------------|
A|---------3------------------------|
E|-----3h5--------------------------|



SEQUENCE:
(Intro)

(Verse 1)
Bless my heart, Bless my soul
Didn't think I'd make it to 22 years old
There must be someone up above
sayin' Come on Brittney, You got to come on up

(Chorus)
You've got to hold on
Yeah you've got to hold on

(Verse 2)
So bless my heart and bless yours too
I don't know where I'm gonna go
Don't know what I'm gonna do
Well, must be somebody up above
sayin' Come on Brittney, You've got to come on up

(Chorus)
You've got to hold on
Yeah you've got to hold on

(Bridge)
Yeah you've got to wait
you've got to wait
But I don't wanna wait
Don't wanna wait

(Verse 3)
So bless my heart, bless my mind
I got so much to do, I aint got much time
Well, must be somebody up above
sayin' Come on girl, You've got to get back up

(Chorus)
You've got to hold on
Yeah you've got to hold on

(Bridge)
Yeah you've got to wait
you've got to wait
But I don't wanna wait
Don't wanna wait

(Outro)
You've got to hold on
Well aren't you new guhhh????, You've got to hold on
Well everybody looking at you funny, You've got to hold on
You've got to hold on
Tap to rate this tab
 
# A B C D E F G H I J K L M N O P Q R S T U V W X Y Z