Song name
# A B C D E F G H I J K L M N O P Q R S T U V W X Y Z

Alamo Race Track - Black Cat John Brown tab

This is na mixture of all the tabs I found on the net and what I heard and saw them 
Comment and rate, it's REALLY my first tab (I saw that this is written under almost every tab...).


Intro/Main Riff:

e|------------------------------------------------------------------------------------|
b|------------------------------------------------------------------------------------|
g|----------------------------------------------------0---0---0-----------------------|
d|----------0---0---0------------0---0---0--------------1---1--------------0---0---0--|
a|-/5-3-1-----1---1-----/5-3-1-----1---1-----/5-3-1-3-------------/5-3-1-----1---1----|
e|--------3--------------------3-----------------------------------------3------------|


Chorus (2x):

  F                Bb
e|---1---1---1---1---6---6---6---6-|
b|---1---1---1---1---6---6---6---6-|
g|---2---2---2---2---7---7---7---7-|    2x
d|---3---3---3---3---8---8---8---8-|
a|-3-3-3-3-3-3-3-3-3-8-8-8-8-8-8-8-|
e|-1-1-1-1-1-1-1-1-1-6-6-6-6-6-6-6-|


  F                Gm               Dm      Cm  Bb    F
e|---1---1---1---1---3---3---3---3----5---5---3---6---1-1-1-1r------|
b|---1---1---1---1---3---3---3---3----6---6---4---6---1-1-1-1r------|
g|---2---2---2---2---3---3---3---3--7-7-7-7-5-5---7---2-2-2-2r------|
d|---3---3---3---3---5---5---5---5--7-7-7-7-5-5-8-8-3-3-3-3-3r------|
a|-3-3-3-3-3-3-3-3-3-5-5-5-5-5-5-5--5-5-5-5-3-3-8-8-3-3-3-3-3r------|
e|-1-1-1-1-1-1-1-1-1-3-3-3-3-3-3-3--------------6-6-1-1-1-1-1r------|

main riff again until end of the song.

Notation legend:

/ = slide up
r = let ring
Tap to rate this tab
# A B C D E F G H I J K L M N O P Q R S T U V W X Y Z