Song name
# A B C D E F G H I J K L M N O P Q R S T U V W X Y Z

Alan Menken - Waiting For The Lights tab

Tabbed by: Eric Morales
Email: Curledart@hotmail.com

Tuning: Standard

e|--4-------------0----------------------------------------------------------|
B|---------0---------0------------7--------------------4h5-4-----------------|
G|------1---------------2--------8---------8--------------------4------------|
D|--2-----------------------------------9------------------4-----------------|
A|----------------4------------------6---------------2-----------------------|
E|---------------------------------------------------------------------------|

e|--------------------------------0------------------------------------------|
B|--2-----------------2------0--------4-----2------0-------------------------|
G|------2----2----4----------------------------------2---------4-------------|
D|------4-------------------------2-------------2--------------4-------------|
A|------4-----------------------------------0------------------2-------------|
E|--2------------------------4-----------------------------------------------|

e|------------------------------------------2--------------------------------|
B|----------0----------------------------------------------------------------|
G|------1-----------------2------------4--------4--------4-------------------|
D|--2----------------2------------1-----------------1------------------------|
A|---------------4-----------------------------------------------------------|
E|---------------------------------------------------------------------------|

e|---------------------------------------------------------------------------|
B|----------2---------------------------5---------5--------------------------|
G|----------2-------------4-------------6---------6--------------------------|
D|------4-------------2-------------6-------------4--------------------------|
A|------------------------------4--------------------------------------------|
E|--2-------------4-------------------------------6--------------------------|

e|---------------------------------------------------------------------------|
B|---------------0-----------------------------------------------------------|
G|--------------------------------8------------9-----------------------------|
D|-----------7--------------------9------------6-----------------------------|
A|------7---------------------9----------------7-----------------------------|
E|--5---------------------7--------------------0-----------------------------|

e|---------------------------------------------------------------------------|
B|------9---10----9\----5----3----2----3----5\-------------------------------|
G|--9--------------------------------------------2---------------------------|
D|---------------------------------------------------------------------------|
A|---------------------------------------------------------------------------|
E|---------------------------------------------------------------------------|

e|---------------------------------------------------------------------------|
B|------9----10----9\----5-------5/----7------5------------------------------|
G|--9------------------------6-----------------------------------------------|
D|---------------------------------------------------------------------------|
A|---------------------------------------------------------------------------|
E|---------------------------------------------------------------------------|


************************************

| /   slide up
| \   slide down
| h   hammer-on
| p   pull-off
| ~   vibrato
| +   harmonic
| x   Mute note
| b   Bend
| pb  Pre-bend
| br  Bend release
| pbr Pre-bend release
| brb Bend release bend

************************************
Tap to rate this tab
 
# A B C D E F G H I J K L M N O P Q R S T U V W X Y Z